  0
SECTION
  2
HEADER
  9
$ACADVER
  1
AC1009
  9
$INSBASE
 10
0.0
 20
0.0
 30
0.0
  9
$EXTMIN
 10
29.989015033921529
 20
7.1438617575261096
 30
-0.0015258207003583
  9
$EXTMAX
 10
570.01739634668616
 20
810.02472112423811
 30
0.0000000349246037
  9
$LIMMIN
 10
0.0
 20
0.0
  9
$LIMMAX
 10
0.0
 20
0.0
  9
$ORTHOMODE
 70
     0
  9
$REGENMODE
 70
     1
  9
$FILLMODE
 70
     1
  9
$QTEXTMODE
 70
     0
  9
$MIRRTEXT
 70
     1
  9
$DRAGMODE
 70
     2
  9
$LTSCALE
 40
15.24
  9
$OSMODE
 70
   231
  9
$ATTMODE
 70
     1
  9
$TEXTSIZE
 40
0.0
  9
$TRACEWID
 40
1.0
  9
$TEXTSTYLE
  7
STANDARD
  9
$CLAYER
  8
DATA
  9
$CELTYPE
  6
BYLAYER
  9
$CECOLOR
 62
   256
  9
$DIMSCALE
 40
1.0
  9
$DIMASZ
 40
0.18
  9
$DIMEXO
 40
0.0625
  9
$DIMDLI
 40
0.38
  9
$DIMRND
 40
0.0
  9
$DIMDLE
 40
0.0
  9
$DIMEXE
 40
0.18
  9
$DIMTP
 40
0.0
  9
$DIMTM
 40
0.0
  9
$DIMTXT
 40
0.18
  9
$DIMCEN
 40
0.09
  9
$DIMTSZ
 40
0.0
  9
$DIMTOL
 70
     0
  9
$DIMLIM
 70
     0
  9
$DIMTIH
 70
     1
  9
$DIMTOH
 70
     1
  9
$DIMSE1
 70
     0
  9
$DIMSE2
 70
     0
  9
$DIMTAD
 70
     0
  9
$DIMZIN
 70
     0
  9
$DIMBLK
  1

  9
$DIMASO
 70
     1
  9
$DIMSHO
 70
     1
  9
$DIMPOST
  1

  9
$DIMAPOST
  1

  9
$DIMALT
 70
     0
  9
$DIMALTD
 70
     2
  9
$DIMALTF
 40
25.399999999999999
  9
$DIMLFAC
 40
1.0
  9
$DIMTOFL
 70
     0
  9
$DIMTVP
 40
0.0
  9
$DIMTIX
 70
     0
  9
$DIMSOXD
 70
     0
  9
$DIMSAH
 70
     0
  9
$DIMBLK1
  1

  9
$DIMBLK2
  1

  9
$DIMSTYLE
  2
STANDARD
  9
$DIMCLRD
 70
     0
  9
$DIMCLRE
 70
     0
  9
$DIMCLRT
 70
     0
  9
$DIMTFAC
 40
1.0
  9
$DIMGAP
 40
0.09
  9
$LUNITS
 70
     2
  9
$LUPREC
 70
     4
  9
$SKETCHINC
 40
0.1
  9
$FILLETRAD
 40
0.0
  9
$AUNITS
 70
     0
  9
$AUPREC
 70
     0
  9
$MENU
  1
acad
  9
$ELEVATION
 40
0.0
  9
$PELEVATION
 40
0.0
  9
$THICKNESS
 40
0.0
  9
$LIMCHECK
 70
     0
  9
$BLIPMODE
 70
     0
  9
$CHAMFERA
 40
0.0
  9
$CHAMFERB
 40
0.0
  9
$SKPOLY
 70
     0
  9
$TDCREATE
 40
2455223.8703472218
  9
$TDUPDATE
 40
2455223.8723817361
  9
$TDINDWG
 40
0.0002340046
  9
$TDUSRTIMER
 40
0.0002340046
  9
$USRTIMER
 70
     1
  9
$ANGBASE
 50
0.0
  9
$ANGDIR
 70
     0
  9
$PDMODE
 70
     1
  9
$PDSIZE
 40
-2.0
  9
$PLINEWID
 40
0.0
  9
$COORDS
 70
     0
  9
$SPLFRAME
 70
     0
  9
$SPLINETYPE
 70
     6
  9
$SPLINESEGS
 70
     8
  9
$ATTDIA
 70
     0
  9
$ATTREQ
 70
     1
  9
$HANDLING
 70
     1
  9
$HANDSEED
  5
361
  9
$SURFTAB1
 70
     6
  9
$SURFTAB2
 70
     6
  9
$SURFTYPE
 70
     6
  9
$SURFU
 70
     6
  9
$SURFV
 70
     6
  9
$UCSNAME
  2

  9
$UCSORG
 10
0.0
 20
0.0
 30
0.0
  9
$UCSXDIR
 10
1.0
 20
0.0
 30
0.0
  9
$UCSYDIR
 10
0.0
 20
1.0
 30
0.0
  9
$PUCSNAME
  2

  9
$PUCSORG
 10
0.0
 20
0.0
 30
0.0
  9
$PUCSXDIR
 10
1.0
 20
0.0
 30
0.0
  9
$PUCSYDIR
 10
0.0
 20
1.0
 30
0.0
  9
$USERI1
 70
     0
  9
$USERI2
 70
     0
  9
$USERI3
 70
     0
  9
$USERI4
 70
     0
  9
$USERI5
 70
     0
  9
$USERR1
 40
0.0
  9
$USERR2
 40
0.0
  9
$USERR3
 40
0.0
  9
$USERR4
 40
0.0
  9
$USERR5
 40
0.0
  9
$WORLDVIEW
 70
     1
  9
$SHADEDGE
 70
     3
  9
$SHADEDIF
 70
    70
  9
$TILEMODE
 70
     1
  9
$MAXACTVP
 70
    64
  9
$PLIMCHECK
 70
     0
  9
$PEXTMIN
 10
1.0000000000000000E+020
 20
1.0000000000000000E+020
 30
1.0000000000000000E+020
  9
$PEXTMAX
 10
-1.0000000000000000E+020
 20
-1.0000000000000000E+020
 30
-1.0000000000000000E+020
  9
$PLIMMIN
 10
0.0
 20
0.0
  9
$PLIMMAX
 10
12.0
 20
9.0
  9
$UNITMODE
 70
     0
  9
$VISRETAIN
 70
     0
  9
$PLINEGEN
 70
     1
  9
$PSLTSCALE
 70
     0
  0
ENDSEC
  0
SECTION
  2
TABLES
  0
TABLE
  2
VPORT
 70
     1
  0
VPORT
  2
*ACTIVE
 70
     0
 10
0.0
 20
0.0
 11
1.0
 21
1.0
 12
300.00320569030379
 22
408.584291440882
 13
0.0
 23
0.0
 14
1.0
 24
1.0
 15
0.0
 25
0.0
 16
0.0
 26
0.0
 36
1.0
 17
0.0
 27
0.0
 37
0.0
 40
808.7989000991447
 41
1.964329643296433
 42
50.0
 43
0.0
 44
0.0
 50
0.0
 51
0.0
 71
     0
 72
  2000
 73
     1
 74
     1
 75
     0
 76
     0
 77
     0
 78
     0
  0
ENDTAB
  0
TABLE
  2
LTYPE
 70
    11
  0
LTYPE
  2
CONTINUOUS
 70
     0
  3
Solid line
 72
    65
 73
     0
 40
0.0
  0
LTYPE
  2
STYLE_05
 70
     0
  3

 72
    65
 73
     2
 40
0.208282470703125
 49
0.069427490234375
 49
-0.13885498046875
  0
ENDTAB
  0
TABLE
  2
LAYER
 70
     5
  0
LAYER
  2
0
 70
     0
 62
     7
  6
CONTINUOUS
  0
LAYER
  2
DATA
 70
     0
 62
     7
  6
CONTINUOUS
  0
LAYER
  2
HIBINO-BASE
 70
     0
 62
     7
  6
CONTINUOUS
  0
LAYER
  2
SPEC
 70
     0
 62
     7
  6
CONTINUOUS
  0
LAYER
  2
DIMNSIONS
 70
     0
 62
     7
  6
CONTINUOUS
  0
ENDTAB
  0
TABLE
  2
STYLE
 70
     3
  0
STYLE
  2
STANDARD
 70
     0
 40
0.0
 41
1.0
 50
0.0
 71
     0
 42
0.0
  3
txt
  4
BIGFONT.SHX
  0
ENDTAB
  0
TABLE
  2
VIEW
 70
     0
  0
ENDTAB
  0
TABLE
  2
UCS
 70
     0
  0
ENDTAB
  0
TABLE
  2
APPID
 70
     3
  0
APPID
  2
ACAD
 70
     0
  0
APPID
  2
ACADANNOTATIVE
 70
     0
  0
APPID
  2
ACAD_MLEADERVER
 70
     0
  0
ENDTAB
  0
TABLE
  2
DIMSTYLE
 70
     2
  0
DIMSTYLE
  2
STANDARD
 70
     0
  3

  4

  5

  6

  7

 40
1.0
 41
0.18
 42
0.0625
 43
0.38
 44
0.18
 45
0.0
 46
0.0
 47
0.0
 48
0.0
140
0.18
141
0.09
142
0.0
143
25.399999999999999
144
1.0
145
0.0
146
1.0
147
0.09
 71
     0
 72
     0
 73
     1
 74
     1
 75
     0
 76
     0
 77
     0
 78
     0
170
     0
171
     2
172
     0
173
     0
174
     0
175
     0
176
     0
177
     0
178
     0
  0
ENDTAB
  0
ENDSEC
  0
SECTION
  2
BLOCKS
  0
BLOCK
  8
0
  2
$MODEL_SPACE
 70
     0
 10
0.0
 20
0.0
 30
0.0
  3
$MODEL_SPACE
  1

  0
ENDBLK
  5
27E
  8
0
  0
BLOCK
 67
     1
  8
0
  2
$PAPER_SPACE
 70
     0
 10
0.0
 20
0.0
 30
0.0
  3
$PAPER_SPACE
  1

  0
ENDBLK
  5
27A
 67
     1
  8
0
  0
ENDSEC
  0
SECTION
  2
ENTITIES
  0
LINE
  5
2C
  8
HIBINO-BASE
  6
CONTINUOUS
 62
     7
 10
30.0
 20
810.0
 30
0.0
 11
569.99999999999989
 21
810.0
 31
0.0
  0
LINE
  5
2D
  8
HIBINO-BASE
  6
CONTINUOUS
 62
     7
 10
569.99999999999989
 20
30.0
 30
0.0
 11
30.0
 21
30.0
 31
0.0
  0
LINE
  5
2E
  8
HIBINO-BASE
  6
CONTINUOUS
 62
     7
 10
30.0
 20
30.0
 30
0.0
 11
30.0
 21
810.0
 31
0.0
  0
TEXT
  5
2F
  8
HIBINO-BASE
 62
     7
 10
51.551999999999971
 20
10.77396660000008
 30
0.0
 40
10.800132539062499
  1
Hibino Corporation
 41
0.7
 11
51.551999999999971
 21
21.574099139062589
 31
0.0
 73
     3
  0
LINE
  5
30
  8
HIBINO-BASE
  6
CONTINUOUS
 62
     7
 10
569.99999999999989
 20
810.0
 30
0.0
 11
569.99999999999989
 21
30.0
 31
0.0
  0
LINE
  5
31
  8
HIBINO-BASE
  6
CONTINUOUS
 62
     7
 10
300.0
 20
97.500000000000057
 30
0.0
 11
569.99999999999989
 21
97.500000000000057
 31
0.0
  0
LINE
  5
32
  8
HIBINO-BASE
  6
CONTINUOUS
 62
     7
 10
300.0
 20
30.0
 30
0.0
 11
300.0
 21
97.500000000000057
 31
0.0
  0
TEXT
  5
33
  8
HIBINO-BASE
 62
     7
 10
302.69999999999987
 20
89.973919999999993
 30
0.0
 40
4.8865234374999993
  1
NOTE
 41
0.7
 11
302.69999999999987
 21
94.860443437499995
 31
0.0
 73
     3
  0
LINE
  5
34
  8
HIBINO-BASE
  6
CONTINUOUS
 62
     7
 10
405.0
 20
30.0
 30
0.0
 11
405.0
 21
97.500000000000057
 31
0.0
  0
TEXT
  5
35
  8
HIBINO-BASE
 62
     7
 10
407.69999999999987
 20
89.973919999999993
 30
0.0
 40
4.8865234374999993
  1
TITLE
 41
0.7
 11
407.69999999999987
 21
94.860443437499995
 31
0.0
 73
     3
  0
TEXT
  5
36
  8
HIBINO-BASE
 62
     7
 10
450.2051699999999
 20
10.77396660000008
 30
0.0
 40
10.800132539062499
  1
ヒビノ株式会社
 41
0.7
 11
450.2051699999999
 21
21.574099139062589
 31
0.0
 73
     3
  0
LINE
  5
37
  8
HIBINO-BASE
  6
CONTINUOUS
 62
     7
 10
300.0
 20
60.000000000000071
 30
0.0
 11
569.99999999999989
 21
60.000000000000071
 31
0.0
  0
TEXT
  5
38
  8
HIBINO-BASE
 62
     7
 10
445.19999999999987
 20
52.64287999999997
 30
0.0
 40
4.8865234374999993
  1
DRAWN
 41
0.7
 11
445.19999999999987
 21
57.529403437499973
 31
0.0
 73
     3
  0
TEXT
  5
39
  8
HIBINO-BASE
 62
     7
 10
370.19999999999987
 20
52.64287999999997
 30
0.0
 40
4.8865234374999993
  1
DATE
 41
0.7
 11
370.19999999999987
 21
57.529403437499973
 31
0.0
 73
     3
  0
TEXT
  5
3A
  8
HIBINO-BASE
 62
     7
 10
340.19999999999987
 20
52.64287999999997
 30
0.0
 40
4.8865234374999993
  1
SCALE
 41
0.7
 11
340.19999999999987
 21
57.529403437499973
 31
0.0
 73
     3
  0
TEXT
  5
3B
  8
HIBINO-BASE
 62
     7
 10
407.69999999999987
 20
52.64287999999997
 30
0.0
 40
4.8865234374999993
  1
DESIGN
 41
0.7
 11
407.69999999999987
 21
57.529403437499973
 31
0.0
 73
     3
  0
TEXT
  5
3C
  8
HIBINO-BASE
 62
     7
 10
520.19999999999993
 20
52.64287999999997
 30
0.0
 40
4.8865234374999993
  1
DRAWING NO.
 41
0.7
 11
520.19999999999993
 21
57.529403437499973
 31
0.0
 73
     3
  0
TEXT
  5
3D
  8
HIBINO-BASE
 62
     7
 10
482.69999999999987
 20
52.64287999999997
 30
0.0
 40
4.8865234374999993
  1
CHECK
 41
0.7
 11
482.69999999999987
 21
57.529403437499973
 31
0.0
 73
     3
  0
LINE
  5
3E
  8
HIBINO-BASE
  6
CONTINUOUS
 62
     7
 10
343.12499999999989
 20
33.75
 30
0.0
 11
354.37499999999989
 21
45.000000000000057
 31
0.0
  0
TEXT
  5
3F
  8
HIBINO-BASE
 62
     7
 10
341.25
 20
41.673170000000013
 30
0.0
 40
4.8865234374999993
  1
1
 41
0.7
 11
341.25
 21
46.559693437500009
 31
0.0
 73
     3
  0
LINE
  5
40
  8
HIBINO-BASE
  6
CONTINUOUS
 62
     7
 10
337.5
 20
30.0
 30
0.0
 11
337.5
 21
60.000000000000071
 31
0.0
  0
LINE
  5
41
  8
HIBINO-BASE
  6
CONTINUOUS
 62
     7
 10
367.5
 20
30.0
 30
0.0
 11
367.5
 21
60.000000000000071
 31
0.0
  0
LINE
  5
42
  8
HIBINO-BASE
  6
CONTINUOUS
 62
     7
 10
442.49999999999989
 20
60.000000000000071
 30
0.0
 11
442.49999999999989
 21
30.0
 31
0.0
  0
LINE
  5
43
  8
HIBINO-BASE
  6
CONTINUOUS
 62
     7
 10
517.49999999999989
 20
60.000000000000071
 30
0.0
 11
517.49999999999989
 21
30.0
 31
0.0
  0
LINE
  5
44
  8
HIBINO-BASE
  6
CONTINUOUS
 62
     7
 10
479.99999999999989
 20
30.0
 30
0.0
 11
479.99999999999989
 21
60.000000000000071
 31
0.0
  0
TEXT
  5
45
  8
HIBINO-BASE
 62
     7
 10
370.06961999999987
 20
38.590939999999982
 30
0.0
 40
4.8865234374999993
  1
'10.01.
 41
0.7
 11
370.06961999999987
 21
43.477463437499978
 31
0.0
 73
     3
  0
TEXT
  5
46
  8
HIBINO-BASE
 62
     7
 10
352.49999999999989
 20
36.048170000000013
 30
0.0
 40
4.8865234374999993
  1
3
 41
0.7
 11
352.49999999999989
 21
40.934693437500009
 31
0.0
 73
     3
  0
TEXT
  5
47
  8
HIBINO-BASE
 62
     7
 10
447.01743003310372
 20
38.590939999999982
 30
0.0
 40
4.8865234374999993
  1
N.Sasaki
 41
0.7
 11
447.01743003310372
 21
43.477463437499978
 31
0.0
 73
     3
  0
TEXT
  5
48
  8
HIBINO-BASE
 62
     7
 10
311.64999999999998
 20
35.928000000000033
 30
0.0
 40
9.7730468749999986
  1
A4
 41
0.7
 11
311.64999999999998
 21
45.701046875000031
 31
0.0
 73
     3
  0
TEXT
  5
49
  8
HIBINO-BASE
 62
     7
 10
302.875
 20
52.141635000000051
 30
0.0
 40
4.8865234374999993
  1
PAPER SIZE
 41
0.7
 11
302.875
 21
57.028158437500053
 31
0.0
 73
     3
  0
LINE
  5
4A
  8
SPEC
  6
CONTINUOUS
 62
     7
 10
52.5
 20
780.0
 30
0.0
 11
495.0
 21
780.0
 31
0.0
  0
LINE
  5
4B
  8
SPEC
  6
CONTINUOUS
 62
     7
 10
52.5
 20
768.75
 30
0.0
 11
495.0
 21
768.75
 31
0.0
  0
LINE
  5
4C
  8
SPEC
  6
CONTINUOUS
 62
     7
 10
52.5
 20
723.74999999999989
 30
0.0
 11
495.0
 21
723.74999999999989
 31
0.0
  0
LINE
  5
4D
  8
SPEC
  6
CONTINUOUS
 62
     7
 10
52.5
 20
735.0
 30
0.0
 11
495.0
 21
735.0
 31
0.0
  0
LINE
  5
4E
  8
SPEC
  6
CONTINUOUS
 62
     7
 10
52.5
 20
746.25
 30
0.0
 11
495.0
 21
746.25
 31
0.0
  0
LINE
  5
4F
  8
SPEC
  6
CONTINUOUS
 62
     7
 10
52.5
 20
757.5
 30
0.0
 11
495.0
 21
757.5
 31
0.0
  0
TEXT
  5
50
  8
SPEC
 62
     7
 10
151.84118337620899
 20
771.48170050360181
 30
0.0
 40
5.7009440104166647
  1
コンデンサー型 
 41
0.7
 11
151.84118337620899
 21
777.18264451401853
 31
0.0
 73
     3
  0
LINE
  5
51
  8
SPEC
  6
CONTINUOUS
 62
     7
 10
52.5
 20
780.0
 30
0.0
 11
52.5
 21
633.75
 31
0.0
  0
TEXT
  5
52
  8
SPEC
 62
     7
 10
56.25
 20
784.17980999999986
 30
0.0
 40
7.3297851562499989
  1
仕様
 41
0.7
 11
56.25
 21
791.50959515624982
 31
0.0
 73
     3
  0
LINE
  5
53
  8
SPEC
  6
CONTINUOUS
 62
     7
 10
150.0
 20
780.0
 30
0.0
 11
150.0
 21
633.75
 31
0.0
  0
LINE
  5
54
  8
SPEC
  6
CONTINUOUS
 62
     7
 10
495.0
 20
780.0
 30
0.0
 11
495.0
 21
633.75
 31
0.0
  0
TEXT
  5
55
  8
SPEC
 62
     7
 10
55.152656292954582
 20
726.69503451704406
 30
0.0
 40
5.7009440104166647
  1
最大音圧レベル
 41
0.7
 11
55.152656292954582
 21
732.39597852746078
 31
0.0
 73
     3
  0
TEXT
  5
56
  8
SPEC
 62
     7
 10
54.968603882728331
 20
771.46881549769489
 30
0.0
 40
5.7009440104166647
  1
形式
 41
0.7
 11
54.968603882728331
 21
777.16975950811161
 31
0.0
 73
     3
  0
TEXT
  5
57
  8
SPEC
 62
     7
 10
54.803107896953378
 20
737.92913295568223
 30
0.0
 40
5.7009440104166647
  1
開回路感度
 41
0.7
 11
54.803107896953378
 21
743.63007696609895
 31
0.0
 73
     3
  0
TEXT
  5
58
  8
SPEC
 62
     7
 10
55.023548889508973
 20
760.41019459362622
 30
0.0
 40
5.7009440104166647
  1
指向特性
 41
0.7
 11
55.023548889508973
 21
766.11113860404294
 31
0.0
 73
     3
  0
TEXT
  5
59
  8
SPEC
 62
     7
 10
55.161889067264703
 20
749.15974130630798
 30
0.0
 40
5.7009440104166647
  1
周波数特性
 41
0.7
 11
55.161889067264703
 21
754.8606853167247
 31
0.0
 73
     3
  0
TEXT
  5
5A
  8
SPEC
 62
     7
 10
152.27991192751489
 20
726.56472889850636
 30
0.0
 40
5.7009440104166647
  1
133dB SPL(THD 1%%%)
 41
0.7
 11
152.27991192751489
 21
732.26567290892308
 31
0.0
 73
     3
  0
TEXT
  5
5B
  8
SPEC
 62
     7
 10
152.83085056971129
 20
737.72453378547164
 30
0.0
 40
5.7009440104166647
  1
-42dBV re 1V/Pa
 41
0.7
 11
152.83085056971129
 21
743.42547779588836
 31
0.0
 73
     3
  0
TEXT
  5
5C
  8
SPEC
 62
     7
 10
152.6444051325204
 20
748.82928520630844
 30
0.0
 40
5.7009440104166647
  1
20Hz～20kHz
 41
0.7
 11
152.6444051325204
 21
754.53022921672505
 31
0.0
 73
     3
  0
TEXT
  5
5D
  8
SPEC
 62
     7
 10
152.4884922983442
 20
760.16440371011515
 30
0.0
 40
5.7009440104166647
  1
無指向性
 41
0.7
 11
152.4884922983442
 21
765.86534772053176
 31
0.0
 73
     3
  0
LINE
  5
5E
  8
SPEC
  6
CONTINUOUS
 62
     7
 10
52.5
 20
712.5
 30
0.0
 11
495.0
 21
712.5
 31
0.0
  0
LINE
  5
5F
  8
SPEC
  6
CONTINUOUS
 62
     7
 10
52.5
 20
701.25
 30
0.0
 11
495.0
 21
701.25
 31
0.0
  0
LINE
  5
60
  8
SPEC
  6
CONTINUOUS
 62
     7
 10
52.5
 20
690.0
 30
0.0
 11
495.0
 21
690.0
 31
0.0
  0
LINE
  5
61
  8
SPEC
  6
CONTINUOUS
 62
     7
 10
52.5
 20
678.75
 30
0.0
 11
495.0
 21
678.75
 31
0.0
  0
TEXT
  5
62
  8
SPEC
 62
     7
 10
55.09380058678903
 20
715.19134070027269
 30
0.0
 40
5.7009440104166647
  1
等価雑音レベル
 41
0.7
 11
55.09380058678903
 21
720.89228471068952
 31
0.0
 73
     3
  0
TEXT
  5
63
  8
SPEC
 62
     7
 10
152.6540441776489
 20
715.49412523918613
 30
0.0
 40
5.7009440104166647
  1
26dB SPL(Aウェイト)
 41
0.7
 11
152.6540441776489
 21
721.19506924960285
 31
0.0
 73
     3
  0
TEXT
  5
64
  8
SPEC
 62
     7
 10
54.791160394466523
 20
704.13057620269456
 30
0.0
 40
5.7009440104166647
  1
インピーダンス
 41
0.7
 11
54.791160394466523
 21
709.83152021311128
 31
0.0
 73
     3
  0
TEXT
  5
65
  8
SPEC
 62
     7
 10
152.6991544697857
 20
703.61375333333308
 30
0.0
 40
5.7009440104166647
  1
3500\U+03A9以下
 41
0.7
 11
152.6991544697857
 21
709.3146973437498
 31
0.0
 73
     3
  0
TEXT
  5
66
  8
SPEC
 62
     7
 10
54.342342998964419
 20
692.69031014702625
 30
0.0
 40
5.7009440104166647
  1
コネクター
 41
0.7
 11
54.342342998964419
 21
698.39125415744286
 31
0.0
 73
     3
  0
TEXT
  5
67
  8
SPEC
 62
     7
 10
151.31888624432361
 20
692.54357607191082
 30
0.0
 40
5.7009440104166647
  1
ミニXLR3ピン(メス)
 41
0.7
 11
151.31888624432361
 21
698.24452008232754
 31
0.0
 73
     3
  0
TEXT
  5
68
  8
SPEC
 62
     7
 10
54.869906853820368
 20
681.52130677515765
 30
0.0
 40
5.7009440104166647
  1
ケーブル長
 41
0.7
 11
54.869906853820368
 21
687.22225078557437
 31
0.0
 73
     3
  0
TEXT
  5
69
  8
SPEC
 62
     7
 10
152.27190997940991
 20
681.47339881048845
 30
0.0
 40
5.7009440104166647
  1
1500mm
 41
0.7
 11
152.27190997940991
 21
687.17434282090517
 31
0.0
 73
     3
  0
TEXT
  5
6A
  8
SPEC
 62
     7
 10
54.922820914109138
 20
670.46811998969565
 30
0.0
 40
5.7009440104166647
  1
電源
 41
0.7
 11
54.922820914109138
 21
676.16906400011237
 31
0.0
 73
     3
  0
TEXT
  5
6B
  8
SPEC
 62
     7
 10
152.5762128930362
 20
670.13328651880522
 30
0.0
 40
5.700933749999999
  1
別売のAKGワイヤレスシステムのボディーパック型 送信機に対応
 41
0.7
 11
152.5762128930362
 21
675.8342202688051
 31
0.0
 73
     3
  0
LINE
  5
6C
  8
SPEC
  6
CONTINUOUS
 62
     7
 10
52.5
 20
656.25
 30
0.0
 11
495.0
 21
656.25
 31
0.0
  0
LINE
  5
6D
  8
SPEC
  6
CONTINUOUS
 62
     7
 10
52.5
 20
645.0
 30
0.0
 11
495.0
 21
645.0
 31
0.0
  0
LINE
  5
6E
  8
SPEC
  6
CONTINUOUS
 62
     7
 10
52.5
 20
633.75
 30
0.0
 11
495.0
 21
633.75
 31
0.0
  0
TEXT
  5
6F
  8
SPEC
 62
     7
 10
152.5791927150224
 20
648.12288972841441
 30
0.0
 40
5.7009440104166647
  1
約28g
 41
0.7
 11
152.5791927150224
 21
653.82383373883113
 31
0.0
 73
     3
  0
TEXT
  5
70
  8
SPEC
 62
     7
 10
54.974634463837042
 20
647.92250641715157
 30
0.0
 40
5.7009440104166647
  1
重量
 41
0.7
 11
54.974634463837042
 21
653.62345042756829
 31
0.0
 73
     3
  0
TEXT
  5
71
  8
SPEC
 62
     7
 10
55.124302769343132
 20
636.90559818066504
 30
0.0
 40
5.7009440104166647
  1
付属品
 41
0.7
 11
55.124302769343132
 21
642.60654219108164
 31
0.0
 73
     3
  0
TEXT
  5
72
  8
SPEC
 62
     7
 10
151.8006930190771
 20
637.03365616917699
 30
0.0
 40
5.7009440104166647
  1
プレゼンス・ブースター、ウインドスクリーン(W77/P)、モイスチャーシールド 
 41
0.7
 11
151.8006930190771
 21
642.73460017959371
 31
0.0
 73
     3
  0
LINE
  5
73
  8
SPEC
  6
CONTINUOUS
 62
     7
 10
52.5
 20
667.49999999999989
 30
0.0
 11
495.0
 21
667.49999999999989
 31
0.0
  0
TEXT
  5
74
  8
SPEC
 62
     7
 10
152.27820378525479
 20
659.19168106795621
 30
0.0
 40
5.7009440104166647
  1
145(W)\U+00D7215(D)mm(突起は含まず) 
 41
0.7
 11
152.27820378525479
 21
664.89262507837293
 31
0.0
 73
     3
  0
TEXT
  5
75
  8
SPEC
 62
     7
 10
54.868591341389113
 20
659.52330101031475
 30
0.0
 40
5.7009440104166647
  1
寸法
 41
0.7
 11
54.868591341389113
 21
665.22424502073147
 31
0.0
 73
     3
  0
TEXT
  5
76
  8
DIMNSIONS
 62
     7
 10
240.0
 20
66.808470000000028
 30
0.0
 40
7.3297851562499989
  1
(単位：mm)
 41
0.7
 11
240.0
 21
74.138255156250025
 31
0.0
 73
     3
  0
LINE
  5
77
  8
DIMNSIONS
  6
CONTINUOUS
 62
     7
 10
344.44129132551382
 20
179.68223227127939
 30
0.0
 11
387.5
 21
179.68223227127939
 31
0.0
  0
LINE
  5
78
  8
DIMNSIONS
  6
CONTINUOUS
 62
     7
 10
368.75
 20
179.68223227127939
 30
0.0
 11
368.75
 21
463.75
 31
0.0
  0
LINE
  5
79
  8
DIMNSIONS
  6
CONTINUOUS
 62
     7
 10
368.75
 20
179.68223227127939
 30
0.0
 11
366.19778394209368
 21
189.20723227127939
 31
0.0
  0
LINE
  5
7A
  8
DIMNSIONS
  6
CONTINUOUS
 62
     7
 10
368.75
 20
179.68223227127939
 30
0.0
 11
371.30221605790632
 21
189.20723227127939
 31
0.0
  0
LINE
  5
7B
  8
DIMNSIONS
  6
CONTINUOUS
 62
     7
 10
156.0
 20
222.3178399038969
 30
0.0
 11
119.0
 21
222.3178399038969
 31
0.0
  0
LINE
  5
7C
  8
DIMNSIONS
  6
CONTINUOUS
 62
     7
 10
202.0
 20
437.31783990389692
 30
0.0
 11
119.0
 21
437.31783990389692
 31
0.0
  0
LINE
  5
7D
  8
DIMNSIONS
  6
CONTINUOUS
 62
     7
 10
125.0
 20
222.3178399038969
 30
0.0
 11
125.0
 21
437.31783990389692
 31
0.0
  0
LINE
  5
7E
  8
DIMNSIONS
  6
CONTINUOUS
 62
     7
 10
125.0
 20
222.3178399038969
 30
0.0
 11
122.98988061454919
 21
229.81970757967821
 31
0.0
  0
LINE
  5
7F
  8
DIMNSIONS
  6
CONTINUOUS
 62
     7
 10
125.0
 20
222.3178399038969
 30
0.0
 11
127.01011938545069
 21
229.81970757967821
 31
0.0
  0
LINE
  5
80
  8
DIMNSIONS
  6
CONTINUOUS
 62
     7
 10
125.0
 20
437.31783990389692
 30
0.0
 11
127.01011938545069
 21
429.81597222811558
 31
0.0
  0
LINE
  5
81
  8
DIMNSIONS
  6
CONTINUOUS
 62
     7
 10
125.0
 20
437.31783990389692
 30
0.0
 11
122.98988061454919
 21
429.81597222811558
 31
0.0
  0
TEXT
  5
82
  8
DIMNSIONS
 62
     7
 10
122.0183333333333
 20
321.88033990389692
 30
0.0
 40
8.1442057291666661
  1
215
 50
90.0
 41
0.7
 11
113.8741276041667
 21
321.88033990389692
 31
0.0
 73
     3
  0
TEXT
  5
83
  8
DIMNSIONS
 62
     7
 10
361.77086908367329
 20
331.05000000000001
 30
0.0
 40
8.1442057291666661
  1
1500
 50
90.0
 41
0.7
 11
353.6266633545066
 21
331.05000000000001
 31
0.0
 73
     3
  0
ARC
  5
84
  8
DIMNSIONS
  6
CONTINUOUS
 62
     7
 10
338.75
 20
463.75
 30
0.0
 40
30.0
 50
0.0
 51
90.0
  0
LINE
  5
85
  8
DIMNSIONS
  6
CONTINUOUS
 62
     7
 10
145.03340633139709
 20
409.10000000000002
 30
0.0
 11
145.03340633139709
 21
474.75
 31
0.0
  0
LINE
  5
86
  8
DIMNSIONS
  6
CONTINUOUS
 62
     7
 10
290.03340633139698
 20
409.10000000000002
 30
0.0
 11
290.03340633139698
 21
474.75
 31
0.0
  0
LINE
  5
87
  8
DIMNSIONS
  6
CONTINUOUS
 62
     7
 10
145.03340633139709
 20
468.75
 30
0.0
 11
290.03340633139698
 21
468.75
 31
0.0
  0
LINE
  5
88
  8
DIMNSIONS
  6
CONTINUOUS
 62
     7
 10
145.03340633139709
 20
468.75
 30
0.0
 11
152.53527400717829
 21
470.76011938545071
 31
0.0
  0
LINE
  5
89
  8
DIMNSIONS
  6
CONTINUOUS
 62
     7
 10
145.03340633139709
 20
468.75
 30
0.0
 11
152.53527400717829
 21
466.73988061454918
 31
0.0
  0
LINE
  5
8A
  8
DIMNSIONS
  6
CONTINUOUS
 62
     7
 10
290.03340633139698
 20
468.75
 30
0.0
 11
282.5315386556158
 21
466.73988061454918
 31
0.0
  0
LINE
  5
8B
  8
DIMNSIONS
  6
CONTINUOUS
 62
     7
 10
290.03340633139698
 20
468.75
 30
0.0
 11
282.5315386556158
 21
470.76011938545071
 31
0.0
  0
TEXT
  5
8C
  8
DIMNSIONS
 62
     7
 10
209.59590633139709
 20
471.73166666666663
 30
0.0
 40
8.1442057291666661
  1
145
 41
0.7
 11
209.59590633139709
 21
479.8758723958332
 31
0.0
 73
     3
  0
LINE
  5
8D
  8
DIMNSIONS
  6
CONTINUOUS
 62
     7
 10
147.64999999999989
 20
414.05000000000001
 30
0.0
 11
147.64999999999989
 21
499.75
 31
0.0
  0
LINE
  5
8E
  8
DIMNSIONS
  6
CONTINUOUS
 62
     7
 10
147.64999999999989
 20
493.75
 30
0.0
 11
338.75
 21
493.75
 31
0.0
  0
LINE
  5
8F
  8
DIMNSIONS
  6
CONTINUOUS
 62
     7
 10
147.64999999999989
 20
493.75
 30
0.0
 11
155.1518676757812
 21
495.76011938545071
 31
0.0
  0
LINE
  5
90
  8
DIMNSIONS
  6
CONTINUOUS
 62
     7
 10
147.64999999999989
 20
493.75
 30
0.0
 11
155.1518676757812
 21
491.73988061454918
 31
0.0
  0
TEXT
  5
91
  8
DATA
 62
     7
 10
449.99999999999989
 20
63.392670000000031
 30
0.0
 40
7.3297851562499989
  1
HC577L
 41
0.7
 11
449.99999999999989
 21
70.722455156250021
 31
0.0
 73
     3
  0
TEXT
  5
92
  8
DATA
 62
     7
 10
449.99999999999989
 20
85.142670000000024
 30
0.0
 40
7.3297851562499989
  1
AKG
 41
0.7
 11
449.99999999999989
 21
92.472455156250007
 31
0.0
 73
     3
  0
TEXT
  5
93
  8
DATA
 62
     7
 10
442.49999999999989
 20
74.71180140000007
 30
0.0
 40
4.8865311328124994
  1
ヘットウォーン・マイクロホン
 41
0.7
 11
442.49999999999989
 21
79.598332532812563
 31
0.0
 73
     3
  0
TEXT
  5
94
  8
DATA
 62
     7
 10
60.0
 20
42.713999999999977
 30
0.0
 40
4.8865234374999993
  1
仕様および外観は予告なく変更されることがありますので、ご了承ください。
 41
0.7
 11
60.0
 21
47.600523437499987
 31
0.0
 73
     3
  0
LINE
  5
95
  8
DATA
  6
CONTINUOUS
 62
     7
 10
339.27397071892551
 20
207.68223227127939
 30
0.0
 11
339.59129132551368
 21
202.18204227127941
 31
0.0
  0
LINE
  5
96
  8
DATA
  6
CONTINUOUS
 62
     7
 10
328.922327489086
 20
207.68223227127939
 30
0.0
 11
328.60500688249772
 21
202.18204227127941
 31
0.0
  0
LINE
  5
97
  8
DATA
  6
CONTINUOUS
 62
     7
 10
339.59129132551368
 20
202.18204227127941
 30
0.0
 11
339.59129132551368
 21
195.68199227127951
 31
0.0
  0
LINE
  5
98
  8
DATA
  6
CONTINUOUS
 62
     7
 10
328.60500688249772
 20
202.18204227127941
 30
0.0
 11
328.60500688249772
 21
195.68199227127951
 31
0.0
  0
LINE
  5
99
  8
DATA
  6
CONTINUOUS
 62
     7
 10
339.59129132551368
 20
195.68199227127951
 30
0.0
 11
339.59129132551368
 21
188.1822122712793
 31
0.0
  0
LINE
  5
9A
  8
DATA
  6
CONTINUOUS
 62
     7
 10
328.60500688249772
 20
188.1822122712793
 30
0.0
 11
328.60500688249772
 21
195.68199227127951
 31
0.0
  0
LINE
  5
9B
  8
DATA
  6
CONTINUOUS
 62
     7
 10
339.59129132551368
 20
188.1822122712793
 30
0.0
 11
328.60500688249772
 21
188.1822122712793
 31
0.0
  0
LINE
  5
9C
  8
DATA
  6
CONTINUOUS
 62
     7
 10
330.3414013255138
 20
188.1822122712793
 30
0.0
 11
330.3414013255138
 21
179.68223227127939
 31
0.0
  0
LINE
  5
9D
  8
DATA
  6
CONTINUOUS
 62
     7
 10
330.3414013255138
 20
179.68223227127939
 30
0.0
 11
338.34129132551379
 21
179.68223227127939
 31
0.0
  0
LINE
  5
9E
  8
DATA
  6
CONTINUOUS
 62
     7
 10
339.3814113255138
 20
180.1822322712793
 30
0.0
 11
338.34129132551379
 21
180.1822322712793
 31
0.0
  0
LINE
  5
9F
  8
DATA
  6
CONTINUOUS
 62
     7
 10
338.34129132551379
 20
180.38211227127931
 30
0.0
 11
339.14148132551378
 21
180.38211227127931
 31
0.0
  0
POLYLINE
  5
A0
  8
DATA
  6
CONTINUOUS
 62
     7
 66
     1
 10
0.0
 20
0.0
 30
0.0
 70
   129
  0
VERTEX
  5
2AA
  8
DATA
  6
CONTINUOUS
 62
     7
 10
338.55238132551381
 20
184.70720227127941
 30
0.0
  0
VERTEX
  5
2AB
  8
DATA
  6
CONTINUOUS
 62
     7
 10
338.55196379416361
 20
184.7058395244855
 30
0.0
  0
VERTEX
  5
2AC
  8
DATA
  6
CONTINUOUS
 62
     7
 10
338.5519637941635
 20
184.7058395244853
 30
0.0
 42
0.0515215183436891
  0
VERTEX
  5
2AD
  8
DATA
  6
CONTINUOUS
 62
     7
 10
338.54729132551381
 20
184.68210227127929
 30
0.0
  0
SEQEND
  5
2AE
  8
DATA
  6
CONTINUOUS
 62
     7
  0
LINE
  5
A6
  8
DATA
  6
CONTINUOUS
 62
     7
 10
339.14148132551378
 20
180.38211227127931
 30
0.0
 11
338.34532132551379
 21
184.6581222712793
 31
0.0
  0
POLYLINE
  5
A7
  8
DATA
  6
CONTINUOUS
 62
     7
 66
     1
 10
0.0
 20
0.0
 30
0.0
 70
   129
  0
VERTEX
  5
2AF
  8
DATA
  6
CONTINUOUS
 62
     7
 10
338.55238132551381
 20
184.70720227127941
 30
0.0
  0
VERTEX
  5
2B0
  8
DATA
  6
CONTINUOUS
 62
     7
 10
338.55196379416361
 20
184.7058395244855
 30
0.0
  0
VERTEX
  5
2B1
  8
DATA
  6
CONTINUOUS
 62
     7
 10
338.5519637941635
 20
184.7058395244853
 30
0.0
 42
0.0515215183436891
  0
VERTEX
  5
2B2
  8
DATA
  6
CONTINUOUS
 62
     7
 10
338.54729132551381
 20
184.68210227127929
 30
0.0
  0
SEQEND
  5
2B3
  8
DATA
  6
CONTINUOUS
 62
     7
  0
LINE
  5
AD
  8
DATA
  6
CONTINUOUS
 62
     7
 10
338.91839132551382
 20
187.43411227127939
 30
0.0
 11
339.05839132551381
 21
187.58121227127941
 31
0.0
  0
LINE
  5
AE
  8
DATA
  6
CONTINUOUS
 62
     7
 10
339.35119132551381
 20
187.18350227127939
 30
0.0
 11
339.05839132551381
 21
187.58121227127941
 31
0.0
  0
LINE
  5
AF
  8
DATA
  6
CONTINUOUS
 62
     7
 10
339.12968132551379
 20
187.14592227127929
 30
0.0
 11
338.91839132551382
 21
187.43411227127939
 31
0.0
  0
LINE
  5
B0
  8
DATA
  6
CONTINUOUS
 62
     7
 10
339.12968132551379
 20
187.14592227127929
 30
0.0
 11
338.34832132551378
 21
184.7061222712793
 31
0.0
  0
LINE
  5
B1
  8
DATA
  6
CONTINUOUS
 62
     7
 10
338.55238132551381
 20
184.70720227127941
 30
0.0
 11
339.35119132551381
 21
187.18350227127939
 31
0.0
  0
LINE
  5
B2
  8
DATA
  6
CONTINUOUS
 62
     7
 10
338.5493913255138
 20
184.6581222712793
 30
0.0
 11
339.3814113255138
 21
180.1822322712793
 31
0.0
  0
POLYLINE
  5
B3
  8
DATA
  6
CONTINUOUS
 62
     7
 66
     1
 10
0.0
 20
0.0
 30
0.0
 70
   129
  0
VERTEX
  5
2B4
  8
DATA
  6
CONTINUOUS
 62
     7
 10
338.55238132551381
 20
184.70720227127941
 30
0.0
  0
VERTEX
  5
2B5
  8
DATA
  6
CONTINUOUS
 62
     7
 10
338.55196379416361
 20
184.7058395244855
 30
0.0
  0
VERTEX
  5
2B6
  8
DATA
  6
CONTINUOUS
 62
     7
 10
338.5519637941635
 20
184.7058395244853
 30
0.0
 42
0.0515215183436891
  0
VERTEX
  5
2B7
  8
DATA
  6
CONTINUOUS
 62
     7
 10
338.54729132551381
 20
184.68210227127929
 30
0.0
  0
SEQEND
  5
2B8
  8
DATA
  6
CONTINUOUS
 62
     7
  0
LINE
  5
B9
  8
DATA
  6
CONTINUOUS
 62
     7
 10
336.84129132551368
 20
187.68219227127929
 30
0.0
 11
336.84129132551368
 21
185.1821422712793
 31
0.0
  0
LINE
  5
BA
  8
DATA
  6
CONTINUOUS
 62
     7
 10
336.84129132551368
 20
187.68219227127929
 30
0.0
 11
338.34129132551379
 21
187.68219227127929
 31
0.0
  0
LINE
  5
BB
  8
DATA
  6
CONTINUOUS
 62
     7
 10
336.84129132551368
 20
185.1821422712793
 30
0.0
 11
338.34129132551379
 21
185.1821422712793
 31
0.0
  0
LINE
  5
BC
  8
DATA
  6
CONTINUOUS
 62
     7
 10
338.34129132551379
 20
187.68219227127929
 30
0.0
 11
338.34129132551379
 21
188.1822122712793
 31
0.0
  0
LINE
  5
BD
  8
DATA
  6
CONTINUOUS
 62
     7
 10
338.34129132551379
 20
185.1821422712793
 30
0.0
 11
338.34129132551379
 21
179.68223227127939
 31
0.0
  0
LINE
  5
BE
  8
DATA
  6
CONTINUOUS
 62
     7
 10
338.33230132551392
 20
185.1972122712794
 30
0.0
 11
338.33230132551392
 21
186.8501022712793
 31
0.0
  0
LINE
  5
BF
  8
DATA
  6
CONTINUOUS
 62
     7
 10
338.33230132551392
 20
186.8501022712793
 30
0.0
 11
338.68430132551379
 21
186.8501022712793
 31
0.0
  0
LINE
  5
C0
  8
DATA
  6
CONTINUOUS
 62
     7
 10
338.68430132551379
 20
186.8501022712793
 30
0.0
 11
338.34129132551379
 21
185.1821422712793
 31
0.0
  0
CIRCLE
  5
C1
  8
DATA
  6
CONTINUOUS
 62
     7
 10
334.64922401141718
 20
170.84320000021631
 30
0.0
 40
0.6279809320000567
  0
CIRCLE
  5
C2
  8
DATA
  6
CONTINUOUS
 62
     7
 10
334.64922401141718
 20
166.65680000021629
 30
0.0
 40
0.6278867380000577
  0
CIRCLE
  5
C3
  8
DATA
  6
CONTINUOUS
 62
     7
 10
331.99030835172022
 20
168.7500000002164
 30
0.0
 40
0.6278553400000462
  0
LINE
  5
C4
  8
DATA
  6
CONTINUOUS
 62
     7
 10
338.40585122572031
 20
169.7966000002163
 30
0.0
 11
337.59381521772031
 21
169.7966000002163
 31
0.0
  0
LINE
  5
C5
  8
DATA
  6
CONTINUOUS
 62
     7
 10
338.40585122572031
 20
167.70340000021631
 30
0.0
 11
337.59381521772031
 21
167.70340000021631
 31
0.0
  0
LINE
  5
C6
  8
DATA
  6
CONTINUOUS
 62
     7
 10
336.9616583517203
 20
171.01694606621641
 30
0.0
 11
336.9616583517203
 21
166.4842365922164
 31
0.0
  0
ARC
  5
C7
  8
DATA
  6
CONTINUOUS
 62
     7
 10
334.08350835172018
 20
168.7500000002164
 30
0.0
 40
3.6630077605005309
 50
16.601979754991799
 51
343.39802024500813
  0
ARC
  5
C8
  8
DATA
  6
CONTINUOUS
 62
     7
 10
334.08350835172018
 20
168.7500000002164
 30
0.0
 40
4.4472485291940673
 50
13.61146039991713
 51
346.40132609757887
  0
LINE
  5
C9
  8
DATA
  6
CONTINUOUS
 62
     7
 10
337.30179288572032
 20
170.49886860021621
 30
0.0
 11
337.30179288572032
 21
167.00228266021631
 31
0.0
  0
LINE
  5
CA
  8
DATA
  6
CONTINUOUS
 62
     7
 10
339.05485835172021
 20
169.69204466021611
 30
0.0
 11
339.05485835172021
 21
167.8081960582162
 31
0.0
  0
LINE
  5
CB
  8
DATA
  6
CONTINUOUS
 62
     7
 10
339.05485835172021
 20
167.8081960582162
 30
0.0
 11
337.42100062572041
 21
167.8081960582162
 31
0.0
  0
LINE
  5
CC
  8
DATA
  6
CONTINUOUS
 62
     7
 10
337.42100062572041
 20
167.8081960582162
 30
0.0
 11
337.42100062572041
 21
169.69204466021611
 31
0.0
  0
LINE
  5
CD
  8
DATA
  6
CONTINUOUS
 62
     7
 10
337.42100062572041
 20
169.69204466021611
 30
0.0
 11
339.05485835172021
 21
169.69204466021611
 31
0.0
  0
CIRCLE
  5
CE
  8
DATA
  6
CONTINUOUS
 62
     7
 10
334.08350835172018
 20
168.7500000002164
 30
0.0
 40
5.4945558060000286
  0
LINE
  5
CF
  8
DATA
  6
CONTINUOUS
 62
     7
 10
339.3488378257203
 20
170.31990000021631
 30
0.0
 11
340.17577741772033
 21
170.31990000021631
 31
0.0
  0
LINE
  5
D0
  8
DATA
  6
CONTINUOUS
 62
     7
 10
340.17577741772033
 20
167.1801000002163
 30
0.0
 11
339.3488378257203
 21
167.1801000002163
 31
0.0
  0
ARC
  5
D1
  8
DATA
  6
CONTINUOUS
 62
     7
 10
339.39396721772027
 20
168.7500000002164
 30
0.0
 40
1.753799646146649
 50
296.4733046109572
 51
63.52669538904199
  0
CIRCLE
  5
D2
  8
DATA
  6
CONTINUOUS
 62
     7
 10
334.08350835172018
 20
168.7500000002164
 30
0.0
 40
5.4945558060000286
  0
ARC
  5
D3
  8
DATA
  6
CONTINUOUS
 62
     7
 10
339.41535132551383
 20
191.71412227127951
 30
0.0
 40
1.6756891300298029
 50
296.47330338667717
 51
63.527001456073229
  0
LINE
  5
D4
  8
DATA
  6
CONTINUOUS
 62
     7
 10
340.16234132551381
 20
193.21413227127951
 30
0.0
 11
339.59129132551368
 21
193.21413227127951
 31
0.0
  0
LINE
  5
D5
  8
DATA
  6
CONTINUOUS
 62
     7
 10
340.16234132551381
 20
190.21414227127951
 30
0.0
 11
339.59129132551368
 21
190.21414227127951
 31
0.0
  0
LINE
  5
D6
  8
DATA
  6
CONTINUOUS
 62
     7
 10
184.04212912009871
 20
428.46771280025678
 30
0.0
 11
184.04208503125051
 21
428.46744862561371
 31
0.0
  0
LINE
  5
D7
  8
DATA
  6
CONTINUOUS
 62
     7
 10
182.83144505163071
 20
425.44038681826902
 30
0.0
 11
178.59343500117461
 21
423.6249765263853
 31
0.0
  0
LINE
  5
D8
  8
DATA
  6
CONTINUOUS
 62
     7
 10
183.73915019757229
 20
428.77007528550388
 30
0.0
 11
183.73915019757229
 21
428.77069172278277
 31
0.0
  0
LINE
  5
D9
  8
DATA
  6
CONTINUOUS
 62
     7
 10
184.04182058759059
 20
428.46771280025678
 30
0.0
 11
184.04212912009871
 21
428.46771280025678
 31
0.0
  0
LINE
  5
DA
  8
DATA
  6
CONTINUOUS
 62
     7
 10
177.68572985523289
 20
423.92795544891129
 30
0.0
 11
177.9887087777586
 21
423.6249765263853
 31
0.0
  0
POLYLINE
  5
DB
  8
DATA
  6
CONTINUOUS
 62
     7
 66
     1
 10
0.0
 20
0.0
 30
0.0
 70
   128
  0
VERTEX
  5
2B9
  8
DATA
  6
CONTINUOUS
 62
     7
 10
183.43617127504589
 20
429.07367064530871
 30
0.0
  0
VERTEX
  5
2BA
  8
DATA
  6
CONTINUOUS
 62
     7
 10
183.73915019757229
 20
428.77069172278277
 30
0.0
  0
VERTEX
  5
2BB
  8
DATA
  6
CONTINUOUS
 62
     7
 10
184.04212912009871
 20
428.46771280025678
 30
0.0
  0
SEQEND
  5
2BC
  8
DATA
  6
CONTINUOUS
 62
     7
  0
POLYLINE
  5
E0
  8
DATA
  6
CONTINUOUS
 62
     7
 66
     1
 10
0.0
 20
0.0
 30
0.0
  0
VERTEX
  5
2BD
  8
DATA
  6
CONTINUOUS
 62
     7
 10
183.7379122831581
 20
428.77131194059513
 30
0.0
  0
VERTEX
  5
2BE
  8
DATA
  6
CONTINUOUS
 62
     7
 10
183.73915019757229
 20
428.77069172278277
 30
0.0
  0
VERTEX
  5
2BF
  8
DATA
  6
CONTINUOUS
 62
     7
 10
184.04212912009871
 20
428.46771280025678
 30
0.0
  0
SEQEND
  5
2C0
  8
DATA
  6
CONTINUOUS
 62
     7
  0
POLYLINE
  5
E6
  8
DATA
  6
CONTINUOUS
 62
     7
 66
     1
 10
0.0
 20
0.0
 30
0.0
  0
VERTEX
  5
2C1
  8
DATA
  6
CONTINUOUS
 62
     7
 10
177.081003631817
 20
426.652302508373
 30
0.0
  0
VERTEX
  5
2C2
  8
DATA
  6
CONTINUOUS
 62
     7
 10
179.50237176875299
 20
428.46771280025678
 30
0.0
  0
VERTEX
  5
2C3
  8
DATA
  6
CONTINUOUS
 62
     7
 10
182.2267188282147
 20
429.3741863245624
 30
0.0
  0
SEQEND
  5
2C4
  8
DATA
  6
CONTINUOUS
 62
     7
  0
POLYLINE
  5
EC
  8
DATA
  6
CONTINUOUS
 62
     7
 66
     1
 10
0.0
 20
0.0
 30
0.0
 70
   128
  0
VERTEX
  5
2C5
  8
DATA
  6
CONTINUOUS
 62
     7
 10
176.77802470929061
 20
425.1374078957428
 30
0.0
  0
VERTEX
  5
2C6
  8
DATA
  6
CONTINUOUS
 62
     7
 10
176.77802470929061
 20
425.44038681826902
 30
0.0
  0
VERTEX
  5
2C7
  8
DATA
  6
CONTINUOUS
 62
     7
 10
176.77802470929061
 20
425.7433657407949
 30
0.0
  0
SEQEND
  5
2C8
  8
DATA
  6
CONTINUOUS
 62
     7
  0
LINE
  5
F1
  8
DATA
  6
CONTINUOUS
 62
     7
 10
176.77802470929061
 20
425.7433657407949
 30
0.0
 11
177.081003631817
 21
426.652302508373
 31
0.0
  0
LINE
  5
F2
  8
DATA
  6
CONTINUOUS
 62
     7
 10
183.73915019757229
 20
428.77069172278277
 30
0.0
 11
183.73915019757229
 21
428.77007528550388
 31
0.0
  0
LINE
  5
F3
  8
DATA
  6
CONTINUOUS
 62
     7
 10
183.73915019757229
 20
428.77007528550388
 30
0.0
 11
183.73915019757229
 21
428.77069172278277
 31
0.0
  0
LINE
  5
F4
  8
DATA
  6
CONTINUOUS
 62
     7
 10
183.43617127504589
 20
429.07367064530871
 30
0.0
 11
182.83144505163071
 21
429.3741863245624
 31
0.0
  0
LINE
  5
F5
  8
DATA
  6
CONTINUOUS
 62
     7
 10
176.77802470929061
 20
425.7433657407949
 30
0.0
 11
177.081003631817
 21
426.652302508373
 31
0.0
  0
POLYLINE
  5
F6
  8
DATA
  6
CONTINUOUS
 62
     7
 66
     1
 10
0.0
 20
0.0
 30
0.0
  0
VERTEX
  5
2C9
  8
DATA
  6
CONTINUOUS
 62
     7
 10
176.77802470929061
 20
425.7433657407949
 30
0.0
  0
VERTEX
  5
2CA
  8
DATA
  6
CONTINUOUS
 62
     7
 10
176.77802470929061
 20
425.44038681826902
 30
0.0
  0
VERTEX
  5
2CB
  8
DATA
  6
CONTINUOUS
 62
     7
 10
176.77802470929061
 20
425.1374078957428
 30
0.0
  0
VERTEX
  5
2CC
  8
DATA
  6
CONTINUOUS
 62
     7
 10
176.77802470929061
 20
424.8344289732168
 30
0.0
  0
SEQEND
  5
2CD
  8
DATA
  6
CONTINUOUS
 62
     7
  0
LINE
  5
FD
  8
DATA
  6
CONTINUOUS
 62
     7
 10
176.77802470929061
 20
424.8344289732168
 30
0.0
 11
176.77802470929061
 21
425.1374078957428
 31
0.0
  0
LINE
  5
FE
  8
DATA
  6
CONTINUOUS
 62
     7
 10
176.77802470929061
 20
425.1374078957428
 30
0.0
 11
176.77802470929061
 21
425.7433657407949
 31
0.0
  0
POLYLINE
  5
FF
  8
DATA
  6
CONTINUOUS
 62
     7
 66
     1
 10
0.0
 20
0.0
 30
0.0
  0
VERTEX
  5
2CE
  8
DATA
  6
CONTINUOUS
 62
     7
 10
176.77802470929061
 20
425.7433657407949
 30
0.0
  0
VERTEX
  5
2CF
  8
DATA
  6
CONTINUOUS
 62
     7
 10
176.77802470929061
 20
425.44038681826902
 30
0.0
  0
VERTEX
  5
2D0
  8
DATA
  6
CONTINUOUS
 62
     7
 10
176.77802470929061
 20
425.1374078957428
 30
0.0
  0
VERTEX
  5
2D1
  8
DATA
  6
CONTINUOUS
 62
     7
 10
176.77802470929061
 20
424.8344289732168
 30
0.0
  0
SEQEND
  5
2D2
  8
DATA
  6
CONTINUOUS
 62
     7
  0
LINE
  5
106
  8
DATA
  6
CONTINUOUS
 62
     7
 10
154.23692119227059
 20
382.60000000000002
 30
0.0
 11
155.5904377002845
 21
392.75068534799982
 31
0.0
  0
LINE
  5
107
  8
DATA
  6
CONTINUOUS
 62
     7
 10
154.0767747092909
 20
393.05366427052581
 30
0.0
 11
152.72787053786419
 21
382.60000000000002
 31
0.0
  0
POLYLINE
  5
108
  8
DATA
  6
CONTINUOUS
 62
     7
 66
     1
 10
0.0
 20
0.0
 30
0.0
  0
VERTEX
  5
2D3
  8
DATA
  6
CONTINUOUS
 62
     7
 10
157.104100691279
 20
398.1993794669234
 30
0.0
  0
VERTEX
  5
2D4
  8
DATA
  6
CONTINUOUS
 62
     7
 10
160.1301950516301
 20
405.76646280025682
 30
0.0
  0
VERTEX
  5
2D5
  8
DATA
  6
CONTINUOUS
 62
     7
 10
164.6711840246119
 20
412.42460936601191
 30
0.0
  0
VERTEX
  5
2D6
  8
DATA
  6
CONTINUOUS
 62
     7
 10
170.42162544442559
 20
418.47926132998771
 30
0.0
  0
VERTEX
  5
2D7
  8
DATA
  6
CONTINUOUS
 62
     7
 10
176.77802470929061
 20
423.6249765263853
 30
0.0
  0
SEQEND
  5
2D8
  8
DATA
  6
CONTINUOUS
 62
     7
  0
POLYLINE
  5
110
  8
DATA
  6
CONTINUOUS
 62
     7
 66
     1
 10
0.0
 20
0.0
 30
0.0
  0
VERTEX
  5
2D9
  8
DATA
  6
CONTINUOUS
 62
     7
 10
176.17206686423941
 20
424.8344289732168
 30
0.0
  0
VERTEX
  5
2DA
  8
DATA
  6
CONTINUOUS
 62
     7
 10
169.21094137595759
 20
419.6887137768191
 30
0.0
  0
VERTEX
  5
2DB
  8
DATA
  6
CONTINUOUS
 62
     7
 10
163.76224725703429
 20
413.33354613359
 30
0.0
  0
VERTEX
  5
2DC
  8
DATA
  6
CONTINUOUS
 62
     7
 10
158.91951098316301
 20
406.37242064530881
 30
0.0
  0
VERTEX
  5
2DD
  8
DATA
  6
CONTINUOUS
 62
     7
 10
155.5904377002845
 20
398.50235838944951
 30
0.0
  0
SEQEND
  5
2DE
  8
DATA
  6
CONTINUOUS
 62
     7
  0
LINE
  5
118
  8
DATA
  6
CONTINUOUS
 62
     7
 10
176.77802470929061
 20
423.6249765263853
 30
0.0
 11
177.38275093270661
 21
423.92795544891129
 31
0.0
  0
POLYLINE
  5
119
  8
DATA
  6
CONTINUOUS
 62
     7
 66
     1
 10
0.0
 20
0.0
 30
0.0
  0
VERTEX
  5
2DF
  8
DATA
  6
CONTINUOUS
 62
     7
 10
232.66952586208231
 20
435.12585936601192
 30
0.0
  0
VERTEX
  5
2E0
  8
DATA
  6
CONTINUOUS
 62
     7
 10
241.44729326388321
 20
433.91640691918047
 30
0.0
  0
VERTEX
  5
2E1
  8
DATA
  6
CONTINUOUS
 62
     7
 10
250.225060665684
 20
431.49503878224471
 30
0.0
  0
VERTEX
  5
2E2
  8
DATA
  6
CONTINUOUS
 62
     7
 10
258.69984914495927
 20
427.86175495520467
 30
0.0
  0
SEQEND
  5
2E3
  8
DATA
  6
CONTINUOUS
 62
     7
  0
POLYLINE
  5
120
  8
DATA
  6
CONTINUOUS
 62
     7
 66
     1
 10
0.0
 20
0.0
 30
0.0
  0
VERTEX
  5
2E4
  8
DATA
  6
CONTINUOUS
 62
     7
 10
259.30580699001138
 20
429.07367064530871
 30
0.0
  0
VERTEX
  5
2E5
  8
DATA
  6
CONTINUOUS
 62
     7
 10
250.83101851073599
 20
432.70449122907632
 30
0.0
  0
VERTEX
  5
2E6
  8
DATA
  6
CONTINUOUS
 62
     7
 10
241.75027218640869
 20
435.12585936601192
 30
0.0
  0
VERTEX
  5
2E7
  8
DATA
  6
CONTINUOUS
 62
     7
 10
232.66952586208231
 20
436.64075397864229
 30
0.0
  0
SEQEND
  5
2E8
  8
DATA
  6
CONTINUOUS
 62
     7
  0
LINE
  5
127
  8
DATA
  6
CONTINUOUS
 62
     7
 10
176.77802470929061
 20
425.44038681826902
 30
0.0
 11
176.17206686423941
 21
424.8344289732168
 31
0.0
  0
POLYLINE
  5
128
  8
DATA
  6
CONTINUOUS
 62
     7
 66
     1
 10
0.0
 20
0.0
 30
0.0
  0
VERTEX
  5
2E9
  8
DATA
  6
CONTINUOUS
 62
     7
 10
259.00282806748498
 20
426.652302508373
 30
0.0
  0
VERTEX
  5
2EA
  8
DATA
  6
CONTINUOUS
 62
     7
 10
258.69984914495927
 20
427.86175495520467
 30
0.0
  0
VERTEX
  5
2EB
  8
DATA
  6
CONTINUOUS
 62
     7
 10
259.30580699001138
 20
429.07367064530871
 30
0.0
  0
VERTEX
  5
2EC
  8
DATA
  6
CONTINUOUS
 62
     7
 10
260.5164910584794
 20
429.3741863245624
 30
0.0
  0
SEQEND
  5
2ED
  8
DATA
  6
CONTINUOUS
 62
     7
  0
POLYLINE
  5
12F
  8
DATA
  6
CONTINUOUS
 62
     7
 66
     1
 10
0.0
 20
0.0
 30
0.0
  0
VERTEX
  5
2EE
  8
DATA
  6
CONTINUOUS
 62
     7
 10
265.66220625487711
 20
426.652302508373
 30
0.0
  0
VERTEX
  5
2EF
  8
DATA
  6
CONTINUOUS
 62
     7
 10
266.26693247829309
 20
425.1374078957428
 30
0.0
  0
VERTEX
  5
2F0
  8
DATA
  6
CONTINUOUS
 62
     7
 10
265.35922733235071
 20
423.92795544891129
 30
0.0
  0
VERTEX
  5
2F1
  8
DATA
  6
CONTINUOUS
 62
     7
 10
264.14854326388269
 20
423.6249765263853
 30
0.0
  0
SEQEND
  5
2F2
  8
DATA
  6
CONTINUOUS
 62
     7
  0
LINE
  5
136
  8
DATA
  6
CONTINUOUS
 62
     7
 10
260.5164910584794
 20
429.3741863245624
 30
0.0
 11
261.72717512694737
 21
429.07367064530871
 31
0.0
  0
LINE
  5
137
  8
DATA
  6
CONTINUOUS
 62
     7
 10
261.72717512694737
 20
429.07367064530871
 30
0.0
 11
265.66220625487711
 21
426.652302508373
 31
0.0
  0
POLYLINE
  5
138
  8
DATA
  6
CONTINUOUS
 62
     7
 66
     1
 10
0.0
 20
0.0
 30
0.0
 70
   128
  0
VERTEX
  5
2F3
  8
DATA
  6
CONTINUOUS
 62
     7
 10
264.14854326388269
 20
423.6249765263853
 30
0.0
  0
VERTEX
  5
2F4
  8
DATA
  6
CONTINUOUS
 62
     7
 10
259.91176483506342
 20
425.7433657407949
 30
0.0
  0
VERTEX
  5
2F5
  8
DATA
  6
CONTINUOUS
 62
     7
 10
259.60878591253783
 20
426.04634466332101
 30
0.0
  0
SEQEND
  5
2F6
  8
DATA
  6
CONTINUOUS
 62
     7
  0
LINE
  5
13D
  8
DATA
  6
CONTINUOUS
 62
     7
 10
287.15277218640881
 20
354.91526868133309
 30
0.0
 11
288.66643517740329
 21
362.4823520146665
 31
0.0
  0
POLYLINE
  5
13E
  8
DATA
  6
CONTINUOUS
 62
     7
 66
     1
 10
0.0
 20
0.0
 30
0.0
  0
VERTEX
  5
2F7
  8
DATA
  6
CONTINUOUS
 62
     7
 10
285.44556264820483
 20
364.91673685209639
 30
0.0
  0
VERTEX
  5
2F8
  8
DATA
  6
CONTINUOUS
 62
     7
 10
284.12544620442071
 20
357.94259466332107
 30
0.0
  0
VERTEX
  5
2F9
  8
DATA
  6
CONTINUOUS
 62
     7
 10
284.12544620442071
 20
357.9362826308261
 30
0.0
  0
SEQEND
  5
2FA
  8
DATA
  6
CONTINUOUS
 62
     7
  0
LINE
  5
144
  8
DATA
  6
CONTINUOUS
 62
     7
 10
282.61301483506321
 20
348.86061671735757
 30
0.0
 11
282.3100359125375
 21
347.65116427052601
 31
0.0
  0
POLYLINE
  5
145
  8
DATA
  6
CONTINUOUS
 62
     7
 66
     1
 10
0.0
 20
0.0
 30
0.0
 70
   128
  0
VERTEX
  5
2FB
  8
DATA
  6
CONTINUOUS
 62
     7
 10
283.82246728189511
 20
355.52122652638542
 30
0.0
  0
VERTEX
  5
2FC
  8
DATA
  6
CONTINUOUS
 62
     7
 10
282.61301483506321
 20
349.76955348493561
 30
0.0
  0
VERTEX
  5
2FD
  8
DATA
  6
CONTINUOUS
 62
     7
 10
282.61301483506321
 20
349.46657456240962
 30
0.0
  0
SEQEND
  5
2FE
  8
DATA
  6
CONTINUOUS
 62
     7
  0
LINE
  5
14A
  8
DATA
  6
CONTINUOUS
 62
     7
 10
286.8497932638831
 20
353.09985838944948
 30
0.0
 11
287.15277218640881
 21
354.91526868133309
 31
0.0
  0
POLYLINE
  5
14B
  8
DATA
  6
CONTINUOUS
 62
     7
 66
     1
 10
0.0
 20
0.0
 30
0.0
 70
   128
  0
VERTEX
  5
2FF
  8
DATA
  6
CONTINUOUS
 62
     7
 10
285.63910919541519
 20
347.04520642547379
 30
0.0
  0
VERTEX
  5
300
  8
DATA
  6
CONTINUOUS
 62
     7
 10
286.54681434135682
 20
352.19092162187133
 30
0.0
  0
VERTEX
  5
301
  8
DATA
  6
CONTINUOUS
 62
     7
 10
286.54681434135682
 20
352.49390054439732
 30
0.0
  0
SEQEND
  5
302
  8
DATA
  6
CONTINUOUS
 62
     7
  0
LINE
  5
150
  8
DATA
  6
CONTINUOUS
 62
     7
 10
282.3100359125375
 20
347.65116427052601
 30
0.0
 11
282.3100359125375
 21
347.34818534800002
 31
0.0
  0
POLYLINE
  5
151
  8
DATA
  6
CONTINUOUS
 62
     7
 66
     1
 10
0.0
 20
0.0
 30
0.0
  0
VERTEX
  5
303
  8
DATA
  6
CONTINUOUS
 62
     7
 10
282.3100359125375
 20
347.34818534800002
 30
0.0
  0
VERTEX
  5
304
  8
DATA
  6
CONTINUOUS
 62
     7
 10
282.91476213595348
 20
345.83575397864217
 30
0.0
  0
VERTEX
  5
305
  8
DATA
  6
CONTINUOUS
 62
     7
 10
284.7314040494735
 20
345.83575397864217
 30
0.0
  0
VERTEX
  5
306
  8
DATA
  6
CONTINUOUS
 62
     7
 10
285.63910919541519
 20
347.04520642547379
 30
0.0
  0
SEQEND
  5
307
  8
DATA
  6
CONTINUOUS
 62
     7
  0
LINE
  5
158
  8
DATA
  6
CONTINUOUS
 62
     7
 10
265.35922733235071
 20
423.92795544891129
 30
0.0
 11
265.96518517740282
 21
423.6249765263853
 31
0.0
  0
LINE
  5
159
  8
DATA
  6
CONTINUOUS
 62
     7
 10
266.87289032334439
 20
424.8344289732168
 30
0.0
 11
266.26693247829309
 21
425.1374078957428
 31
0.0
  0
POLYLINE
  5
15A
  8
DATA
  6
CONTINUOUS
 62
     7
 66
     1
 10
0.0
 20
0.0
 30
0.0
  0
VERTEX
  5
308
  8
DATA
  6
CONTINUOUS
 62
     7
 10
265.96518517740282
 20
423.6249765263853
 30
0.0
  0
VERTEX
  5
309
  8
DATA
  6
CONTINUOUS
 62
     7
 10
271.71562659721639
 20
419.38573485429322
 30
0.0
  0
VERTEX
  5
30A
  8
DATA
  6
CONTINUOUS
 62
     7
 10
276.8613417936142
 20
414.24248290116822
 30
0.0
  0
VERTEX
  5
30B
  8
DATA
  6
CONTINUOUS
 62
     7
 10
281.09935184406947
 20
408.18783093719247
 30
0.0
  0
VERTEX
  5
30C
  8
DATA
  6
CONTINUOUS
 62
     7
 10
284.4284251269471
 20
401.83020005069079
 30
0.0
  0
VERTEX
  5
30D
  8
DATA
  6
CONTINUOUS
 62
     7
 10
286.8497932638831
 20
395.1720534849357
 30
0.0
  0
SEQEND
  5
30E
  8
DATA
  6
CONTINUOUS
 62
     7
  0
POLYLINE
  5
163
  8
DATA
  6
CONTINUOUS
 62
     7
 66
     1
 10
0.0
 20
0.0
 30
0.0
  0
VERTEX
  5
30F
  8
DATA
  6
CONTINUOUS
 62
     7
 10
288.06047733235039
 20
395.4750324074617
 30
0.0
  0
VERTEX
  5
310
  8
DATA
  6
CONTINUOUS
 62
     7
 10
285.63910919541519
 20
402.43615789574289
 30
0.0
  0
VERTEX
  5
311
  8
DATA
  6
CONTINUOUS
 62
     7
 10
282.3100359125375
 20
409.09676770477068
 30
0.0
  0
VERTEX
  5
312
  8
DATA
  6
CONTINUOUS
 62
     7
 10
277.76904693955572
 20
415.14895642547373
 30
0.0
  0
VERTEX
  5
313
  8
DATA
  6
CONTINUOUS
 62
     7
 10
272.62456336479488
 20
420.29467162187132
 30
0.0
  0
VERTEX
  5
314
  8
DATA
  6
CONTINUOUS
 62
     7
 10
266.87289032334439
 20
424.8344289732168
 30
0.0
  0
SEQEND
  5
315
  8
DATA
  6
CONTINUOUS
 62
     7
  0
LINE
  5
16C
  8
DATA
  6
CONTINUOUS
 62
     7
 10
286.8497932638831
 20
395.1720534849357
 30
0.0
 11
287.4557511089352
 21
392.75068534799982
 31
0.0
  0
LINE
  5
16D
  8
DATA
  6
CONTINUOUS
 62
     7
 10
288.66643517740329
 20
393.05366427052581
 30
0.0
 11
288.06047733235039
 21
395.4750324074617
 31
0.0
  0
LINE
  5
16E
  8
DATA
  6
CONTINUOUS
 62
     7
 10
287.4557511089352
 20
392.75068534799982
 30
0.0
 11
288.66643517740329
 21
383.67117064530891
 31
0.0
  0
LINE
  5
16F
  8
DATA
  6
CONTINUOUS
 62
     7
 10
289.8771192458712
 20
383.67117064530891
 30
0.0
 11
288.66643517740329
 21
393.05366427052581
 31
0.0
  0
POLYLINE
  5
170
  8
DATA
  6
CONTINUOUS
 62
     7
 66
     1
 10
0.0
 20
0.0
 30
0.0
  0
VERTEX
  5
316
  8
DATA
  6
CONTINUOUS
 62
     7
 10
184.3451080426243
 20
428.16473387773078
 30
0.0
  0
VERTEX
  5
317
  8
DATA
  6
CONTINUOUS
 62
     7
 10
192.21517029848371
 20
431.1920598597186
 30
0.0
  0
VERTEX
  5
318
  8
DATA
  6
CONTINUOUS
 62
     7
 10
196.45194872730301
 20
432.70449122907632
 30
0.0
  0
VERTEX
  5
319
  8
DATA
  6
CONTINUOUS
 62
     7
 10
200.6899587777591
 20
433.91640691918047
 30
0.0
  0
VERTEX
  5
31A
  8
DATA
  6
CONTINUOUS
 62
     7
 10
204.32201098316239
 20
434.52236476423241
 30
0.0
  0
VERTEX
  5
31B
  8
DATA
  6
CONTINUOUS
 62
     7
 10
207.65108426603999
 20
435.12585936601192
 30
0.0
  0
VERTEX
  5
31C
  8
DATA
  6
CONTINUOUS
 62
     7
 10
210.3754313255024
 20
435.73181721106403
 30
0.0
  0
VERTEX
  5
31D
  8
DATA
  6
CONTINUOUS
 62
     7
 10
212.0
 20
435.89440626473629
 30
0.0
  0
SEQEND
  5
31E
  8
DATA
  6
CONTINUOUS
 62
     7
  0
LINE
  5
17B
  8
DATA
  6
CONTINUOUS
 62
     7
 10
177.68572985523289
 20
423.92795544891129
 30
0.0
 11
177.38275093270661
 21
423.92795544891129
 31
0.0
  0
LINE
  5
17C
  8
DATA
  6
CONTINUOUS
 62
     7
 10
177.68572985523289
 20
423.92795544891129
 30
0.0
 11
176.77802470929061
 21
424.8344289732168
 31
0.0
  0
LINE
  5
17D
  8
DATA
  6
CONTINUOUS
 62
     7
 10
178.59343500117461
 20
423.6249765263853
 30
0.0
 11
177.9887087777586
 21
423.6249765263853
 31
0.0
  0
LINE
  5
17E
  8
DATA
  6
CONTINUOUS
 62
     7
 10
282.61301483506321
 20
348.86061671735757
 30
0.0
 11
282.61301483506321
 21
349.46657456240962
 31
0.0
  0
LINE
  5
17F
  8
DATA
  6
CONTINUOUS
 62
     7
 10
286.54681434135682
 20
352.49390054439732
 30
0.0
 11
286.8497932638831
 21
353.09985838944948
 31
0.0
  0
LINE
  5
180
  8
DATA
  6
CONTINUOUS
 62
     7
 10
288.95552234246651
 20
364.04328157313682
 30
0.0
 11
288.66643517740329
 21
362.4823520146665
 31
0.0
  0
LINE
  5
181
  8
DATA
  6
CONTINUOUS
 62
     7
 10
283.82246728189511
 20
355.52122652638542
 30
0.0
 11
284.1277943769266
 21
357.95499999999998
 31
0.0
  0
LINE
  5
182
  8
DATA
  6
CONTINUOUS
 62
     7
 10
259.60878591253783
 20
426.04634466332101
 30
0.0
 11
259.00282806748498
 21
426.652302508373
 31
0.0
  0
LINE
  5
183
  8
DATA
  6
CONTINUOUS
 62
     7
 10
154.0767747092909
 20
393.05366427052581
 30
0.0
 11
155.5904377002845
 21
398.50235838944951
 31
0.0
  0
LINE
  5
184
  8
DATA
  6
CONTINUOUS
 62
     7
 10
155.5904377002845
 20
392.75068534799982
 30
0.0
 11
157.104100691279
 21
398.1993794669234
 31
0.0
  0
LINE
  5
185
  8
DATA
  6
CONTINUOUS
 62
     7
 10
182.83144505163071
 20
425.44038681826902
 30
0.0
 11
183.90000000000001
 21
426.33999999999992
 31
0.0
  0
LINE
  5
186
  8
DATA
  6
CONTINUOUS
 62
     7
 10
183.90000000000001
 20
426.33999999999992
 30
0.0
 11
184.31999999999999
 21
426.92000000000002
 31
0.0
  0
LINE
  5
187
  8
DATA
  6
CONTINUOUS
 62
     7
 10
184.31999999999999
 20
426.92000000000002
 30
0.0
 11
184.3451080426243
 21
428.16473387773073
 31
0.0
  0
LINE
  5
188
  8
DATA
  6
CONTINUOUS
 62
     7
 10
184.04208503125051
 20
428.46744862561371
 30
0.0
 11
184.3451080426243
 21
428.16473387773073
 31
0.0
  0
LINE
  5
189
  8
DATA
  6
CONTINUOUS
 62
     7
 10
182.2267188282147
 20
429.3741863245624
 30
0.0
 11
182.83144505163071
 21
429.3741863245624
 31
0.0
  0
ARC
  5
18A
  8
DATA
  6
CONTINUOUS
 62
     7
 10
231.5917884724193
 20
323.13452939132009
 30
0.0
 40
116.3703790373329
 50
102.0488432145663
 51
114.4446101226375
  0
LINE
  5
18B
  8
DATA
  6
CONTINUOUS
 62
     7
 10
221.58129600684919
 20
434.62040928180443
 30
0.0
 11
221.58129600684919
 21
435.89440626473629
 31
0.0
  0
LINE
  5
18C
  8
DATA
  6
CONTINUOUS
 62
     7
 10
221.58129600684919
 20
437.25
 30
0.0
 11
221.58129600684919
 21
450.12040928180431
 31
0.0
  0
LINE
  5
18D
  8
DATA
  6
CONTINUOUS
 62
     7
 10
231.58129600684919
 20
450.12040928180431
 30
0.0
 11
231.58129600684919
 21
436.81333198221768
 31
0.0
  0
LINE
  5
18E
  8
DATA
  6
CONTINUOUS
 62
     7
 10
231.58129600684919
 20
435.31964117773379
 30
0.0
 11
231.58129600684919
 21
434.62040928180443
 31
0.0
  0
ARC
  5
18F
  8
DATA
  6
CONTINUOUS
 62
     7
 10
215.4236795890927
 20
349.19920753330462
 30
0.0
 40
88.117328806210637
 50
92.226710474842932
 51
95.289702172457055
  0
ARC
  5
190
  8
DATA
  6
CONTINUOUS
 62
     7
 10
223.90629600684909
 20
389.06627062938219
 30
0.0
 40
46.885817813952343
 50
79.227736766162295
 51
92.842380694963126
  0
ARC
  5
191
  8
DATA
  6
CONTINUOUS
 62
     7
 10
224.45629600684919
 20
388.36769442770583
 30
0.0
 40
48.96677876952031
 50
80.344099352568435
 51
93.365958695072976
  0
LINE
  5
192
  8
DATA
  6
CONTINUOUS
 62
     7
 10
221.58129600684919
 20
434.62040928180443
 30
0.0
 11
231.58129600684919
 21
434.62040928180443
 31
0.0
  0
LINE
  5
193
  8
DATA
  6
CONTINUOUS
 62
     7
 10
223.08129600684919
 20
451.62040928180443
 30
0.0
 11
224.76129600684911
 21
451.62040928180443
 31
0.0
  0
LINE
  5
194
  8
DATA
  6
CONTINUOUS
 62
     7
 10
228.40129600684921
 20
451.62040928180443
 30
0.0
 11
230.08129600684919
 21
451.62040928180443
 31
0.0
  0
ARC
  5
195
  8
DATA
  6
CONTINUOUS
 62
     7
 10
223.08129600684919
 20
450.12040928180431
 30
0.0
 40
1.5
 50
90.0
 51
180.0
  0
ARC
  5
196
  8
DATA
  6
CONTINUOUS
 62
     7
 10
230.08129600684919
 20
450.12040928180431
 30
0.0
 40
1.5
 50
0.0
 51
90.0
  0
ARC
  5
197
  8
DATA
  6
CONTINUOUS
 62
     7
 10
226.81489151246711
 20
446.02040928180429
 30
0.0
 40
2.0135955056179831
 50
108.9408135452454
 51
263.33816523909968
  0
ARC
  5
198
  8
DATA
  6
CONTINUOUS
 62
     7
 10
226.34770050123109
 20
446.02040928180429
 30
0.0
 40
2.0135955056179711
 50
276.66183476090038
 51
71.059186454751028
  0
LINE
  5
199
  8
DATA
  6
CONTINUOUS
 62
     7
 10
226.16129600684911
 20
447.92497741534021
 30
0.0
 11
224.76129600684911
 21
451.62040928180443
 31
0.0
  0
LINE
  5
19A
  8
DATA
  6
CONTINUOUS
 62
     7
 10
227.0012960068492
 20
447.92497741534021
 30
0.0
 11
228.40129600684909
 21
451.62040928180443
 31
0.0
  0
LINE
  5
19B
  8
DATA
  6
CONTINUOUS
 62
     7
 10
221.58129600684919
 20
443.2000000000001
 30
0.0
 11
231.58129600684919
 21
443.2000000000001
 31
0.0
  0
LINE
  5
19C
  8
DATA
  6
CONTINUOUS
 62
     7
 10
333.34134632551383
 20
231.18223227127939
 30
0.0
 11
333.34134632551383
 21
322.00919032008107
 31
0.0
  0
LINE
  5
19D
  8
DATA
  6
CONTINUOUS
 62
     7
 10
333.34134632551383
 20
324.00919032008107
 30
0.0
 11
333.34134632551383
 21
410.3802906859662
 31
0.0
  0
LINE
  5
19E
  8
DATA
  6
CONTINUOUS
 62
     7
 10
335.34134632551383
 20
231.18223227127939
 30
0.0
 11
335.34134632551388
 21
319.47691833541262
 31
0.0
  0
LINE
  5
19F
  8
DATA
  6
CONTINUOUS
 62
     7
 10
335.34134632551388
 20
321.47691833541262
 30
0.0
 11
335.34134632551388
 21
411.88029068596632
 31
0.0
  0
ARC
  5
1A0
  8
DATA
  6
CONTINUOUS
 62
     7
 10
330.625
 20
320.78110642669651
 30
0.0
 40
4.2188935733035473
 50
27.269827443099341
 51
152.73017255690061
  0
ARC
  5
1A1
  8
DATA
  6
CONTINUOUS
 62
     7
 10
338.125
 20
324.64714470010352
 30
0.0
 40
4.2188935733035473
 50
207.26982744309939
 51
332.73017255690058
  0
ARC
  5
1A2
  8
DATA
  6
CONTINUOUS
 62
     7
 10
330.625
 20
318.78110642669651
 30
0.0
 40
4.2188935733035473
 50
27.269827443099341
 51
152.73017255690061
  0
ARC
  5
1A3
  8
DATA
  6
CONTINUOUS
 62
     7
 10
338.125
 20
322.64714470010352
 30
0.0
 40
4.2188935733035473
 50
207.26982744309939
 51
332.73017255690058
  0
ARC
  5
1A4
  8
DATA
  6
CONTINUOUS
 62
     7
 10
205.73678751755119
 20
382.5031624173206
 30
0.0
 40
82.937872556557977
 50
347.53372014066349
 51
0.8069191085738793
  0
ARC
  5
1A5
  8
DATA
  6
CONTINUOUS
 62
     7
 10
189.28290469360971
 20
384.43606694663168
 30
0.0
 40
100.5971225619213
 50
348.46434539901492
 51
359.564343879695
  0
LINE
  5
1A6
  8
DATA
  6
CONTINUOUS
 62
     7
 10
285.44556264820483
 20
364.91673685209639
 30
0.0
 11
288.95552234246651
 21
364.04328157313682
 31
0.0
  0
LINE
  5
1A7
  8
DATA
  6
CONTINUOUS
 62
     7
 10
147.54941837370001
 20
345.2135273430352
 30
0.0
 11
156.0
 21
348.3099236641221
 31
0.0
  0
ARC
  5
1A8
  8
DATA
  6
CONTINUOUS
 62
     7
 10
344.64946806426758
 20
375.2000000000001
 30
0.0
 40
190.55628566457841
 50
177.7744349622223
 51
188.1122884271125
  0
ARC
  5
1A9
  8
DATA
  6
CONTINUOUS
 62
     7
 10
339.99121511170102
 20
374.10000000000002
 30
0.0
 40
187.4561554630296
 50
177.40109270535089
 51
188.08874162728091
  0
ARC
  5
1AA
  8
DATA
  6
CONTINUOUS
 62
     7
 10
424.61475233681489
 20
381.11583903339692
 30
0.0
 40
279.38177332962198
 50
181.014328329699
 51
187.3832843293057
  0
ARC
  5
1AB
  8
DATA
  6
CONTINUOUS
 62
     7
 10
154.82569186356281
 20
372.02870308627001
 30
0.0
 40
10.77743813495557
 50
101.22424031808799
 51
147.36285792312631
  0
LINE
  5
1AC
  8
DATA
  6
CONTINUOUS
 62
     7
 10
147.66098752803569
 20
380.17684052462369
 30
0.0
 11
147.66098752803569
 21
384.19979826201552
 31
0.0
  0
LINE
  5
1AD
  8
DATA
  6
CONTINUOUS
 62
     7
 10
149.16098752803569
 20
384.19979826201552
 30
0.0
 11
149.16098752803569
 21
381.26475164814161
 31
0.0
  0
ARC
  5
1AE
  8
DATA
  6
CONTINUOUS
 62
     7
 10
148.27628818174881
 20
376.22320607702318
 30
0.0
 40
3.00000000000002
 50
147.36285792312611
 51
181.0143283296986
  0
ARC
  5
1AF
  8
DATA
  6
CONTINUOUS
 62
     7
 10
149.8310063889985
 20
387.72442323834161
 30
0.0
 40
4.815390342266304
 50
186.8510722131505
 51
227.0501197674422
  0
ARC
  5
1B0
  8
DATA
  6
CONTINUOUS
 62
     7
 10
146.96899361100139
 20
387.72442323834161
 30
0.0
 40
4.8153903422663102
 50
312.9498802325578
 51
353.14892778684941
  0
LINE
  5
1B1
  8
DATA
  6
CONTINUOUS
 62
     7
 10
146.55000000000001
 20
384.19979826201552
 30
0.0
 11
150.24999999999989
 21
384.19979826201552
 31
0.0
  0
ARC
  5
1B2
  8
DATA
  6
CONTINUOUS
 62
     7
 10
233.21959459459339
 20
389.125
 30
0.0
 40
88.191711832660147
 50
168.17335576287439
 51
181.28321157068041
  0
ARC
  5
1B3
  8
DATA
  6
CONTINUOUS
 62
     7
 10
63.580405405406502
 20
389.125
 30
0.0
 40
88.191711832660118
 50
358.71678842931959
 51
11.826644237125601
  0
ARC
  5
1B4
  8
DATA
  6
CONTINUOUS
 62
     7
 10
55.960163678662013
 20
437.12400754735432
 30
0.0
 40
95.736618165913157
 50
341.78606487203928
 51
342.3207860147877
  0
ARC
  5
1B5
  8
DATA
  6
CONTINUOUS
 62
     7
 10
240.839836321338
 20
437.12400754735432
 30
0.0
 40
95.736618165913185
 50
197.6792139852117
 51
198.2139351279605
  0
LINE
  5
1B6
  8
DATA
  6
CONTINUOUS
 62
     7
 10
147.64999999999989
 20
408.0499999999999
 30
0.0
 11
147.64999999999989
 21
411.88029068596632
 31
0.0
  0
LINE
  5
1B7
  8
DATA
  6
CONTINUOUS
 62
     7
 10
149.6246942506146
 20
408.0499999999999
 30
0.0
 11
147.17530574938539
 21
408.0499999999999
 31
0.0
  0
LINE
  5
1B8
  8
DATA
  6
CONTINUOUS
 62
     7
 10
149.14999999999989
 20
410.3802906859662
 30
0.0
 11
149.14999999999989
 21
408.0499999999999
 31
0.0
  0
LINE
  5
1B9
  8
DATA
  6
CONTINUOUS
 62
     7
 10
147.54941837370001
 20
345.21352734303491
 30
0.0
 11
149.5170038198635
 21
335.6500000000002
 31
0.0
  0
LINE
  5
1BA
  8
DATA
  6
CONTINUOUS
 62
     7
 10
152.1989156201135
 20
346.91715992187369
 30
0.0
 11
154.27011766053079
 21
336.84999999999991
 31
0.0
  0
LINE
  5
1BB
  8
DATA
  6
CONTINUOUS
 62
     7
 10
151.3115560850481
 20
331.012066982303
 30
0.0
 11
149.51700381986359
 21
335.65000000000009
 31
0.0
  0
LINE
  5
1BC
  8
DATA
  6
CONTINUOUS
 62
     7
 10
154.4890588214482
 20
331.8455454693804
 30
0.0
 11
154.27011766053079
 21
336.85000000000002
 31
0.0
  0
LINE
  5
1BD
  8
DATA
  6
CONTINUOUS
 62
     7
 10
154.4890588214482
 20
331.8455454693804
 30
0.0
 11
151.31155608504821
 21
331.012066982303
 31
0.0
  0
ARC
  5
1BE
  8
DATA
  6
CONTINUOUS
 62
     7
 10
854.93568474775475
 20
429.13553939693111
 30
0.0
 40
709.66467793480183
 50
187.93159541643831
 51
195.68245446630189
  0
ARC
  5
1BF
  8
DATA
  6
CONTINUOUS
 62
     7
 10
856.43568474775486
 20
429.13553939693111
 30
0.0
 40
709.66467793480183
 50
187.93159541643831
 51
195.65110816186649
  0
LINE
  5
1C0
  8
DATA
  6
CONTINUOUS
 62
     7
 10
171.3995321256568
 20
237.2317302976378
 30
0.0
 11
173.37002081128659
 21
237.75972114964691
 31
0.0
  0
LINE
  5
1C1
  8
DATA
  6
CONTINUOUS
 62
     7
 10
173.61076612271449
 20
222.2950859552744
 30
0.0
 11
171.54021376189439
 21
230.0224925655869
 31
0.0
  0
LINE
  5
1C2
  8
DATA
  6
CONTINUOUS
 62
     7
 10
176.8528058064843
 20
231.44599731365079
 30
0.0
 11
178.9233581673044
 21
223.71859070333821
 31
0.0
  0
LINE
  5
1C3
  8
DATA
  6
CONTINUOUS
 62
     7
 10
171.54021376189439
 20
230.0224925655869
 30
0.0
 11
176.8528058064843
 21
231.44599731365079
 31
0.0
  0
LINE
  5
1C4
  8
DATA
  6
CONTINUOUS
 62
     7
 10
171.54021376189439
 20
230.0224925655869
 30
0.0
 11
171.3995321256568
 21
237.2317302976378
 31
0.0
  0
LINE
  5
1C5
  8
DATA
  6
CONTINUOUS
 62
     7
 10
176.8528058064843
 20
231.44599731365079
 30
0.0
 11
173.37002081128651
 21
237.75972114964691
 31
0.0
  0
ARC
  5
1C6
  8
DATA
  6
CONTINUOUS
 62
     7
 10
173.04368662079531
 20
235.0366395575476
 30
0.0
 40
12.75416666666616
 50
272.54834187114812
 51
297.4516581288521
  0
POLYLINE
  5
1C7
  8
DATA
  6
CONTINUOUS
 62
     7
 66
     1
 10
0.0
 20
0.0
 30
0.0
 70
     1
  0
VERTEX
  5
31F
  8
DATA
  6
CONTINUOUS
 62
     7
 10
173.9754022284248
 20
224.41157845713039
 30
0.0
  0
VERTEX
  5
320
  8
DATA
  6
CONTINUOUS
 62
     7
 10
177.5493277856944
 20
225.3692089240096
 30
0.0
  0
VERTEX
  5
321
  8
DATA
  6
CONTINUOUS
 62
     7
 10
177.66579635599049
 20
224.93454230217961
 30
0.0
  0
VERTEX
  5
322
  8
DATA
  6
CONTINUOUS
 62
     7
 10
174.09187079872089
 20
223.9769118353002
 30
0.0
  0
SEQEND
  5
323
  8
DATA
  6
CONTINUOUS
 62
     7
  0
POLYLINE
  5
1CE
  8
DATA
  6
CONTINUOUS
 62
     7
 66
     1
 10
0.0
 20
0.0
 30
0.0
 70
     1
  0
VERTEX
  5
324
  8
DATA
  6
CONTINUOUS
 62
     7
 10
173.7165831833222
 20
225.3775042834194
 30
0.0
  0
VERTEX
  5
325
  8
DATA
  6
CONTINUOUS
 62
     7
 10
177.29050874059189
 20
226.33513475029881
 30
0.0
  0
VERTEX
  5
326
  8
DATA
  6
CONTINUOUS
 62
     7
 10
177.40697731088801
 20
225.90046812846859
 30
0.0
  0
VERTEX
  5
327
  8
DATA
  6
CONTINUOUS
 62
     7
 10
173.83305175361841
 20
224.94283766158929
 30
0.0
  0
SEQEND
  5
328
  8
DATA
  6
CONTINUOUS
 62
     7
  0
POLYLINE
  5
1D5
  8
DATA
  6
CONTINUOUS
 62
     7
 66
     1
 10
0.0
 20
0.0
 30
0.0
 70
     1
  0
VERTEX
  5
329
  8
DATA
  6
CONTINUOUS
 62
     7
 10
173.45776413821969
 20
226.34343010970849
 30
0.0
  0
VERTEX
  5
32A
  8
DATA
  6
CONTINUOUS
 62
     7
 10
177.03168969548929
 20
227.30106057658779
 30
0.0
  0
VERTEX
  5
32B
  8
DATA
  6
CONTINUOUS
 62
     7
 10
177.1481582657855
 20
226.8663939547578
 30
0.0
  0
VERTEX
  5
32C
  8
DATA
  6
CONTINUOUS
 62
     7
 10
173.57423270851589
 20
225.90876348787839
 30
0.0
  0
SEQEND
  5
32D
  8
DATA
  6
CONTINUOUS
 62
     7
  0
LINE
  5
1DC
  8
DATA
  6
CONTINUOUS
 62
     7
 10
171.69032880805381
 20
229.4622555863393
 30
0.0
 11
177.00292085264371
 21
230.8857603344031
 31
0.0
  0
LINE
  5
1DD
  8
DATA
  6
CONTINUOUS
 62
     7
 10
305.34134632551388
 20
441.88029068596632
 30
0.0
 11
231.58129600684919
 21
441.88029068596632
 31
0.0
  0
LINE
  5
1DE
  8
DATA
  6
CONTINUOUS
 62
     7
 10
221.58129600684919
 20
441.88029068596632
 30
0.0
 11
177.64999999999989
 21
441.88029068596632
 31
0.0
  0
LINE
  5
1DF
  8
DATA
  6
CONTINUOUS
 62
     7
 10
179.14999999999989
 20
440.38029068596632
 30
0.0
 11
221.58129600684919
 21
440.38029068596632
 31
0.0
  0
LINE
  5
1E0
  8
DATA
  6
CONTINUOUS
 62
     7
 10
231.58129600684919
 20
440.38029068596632
 30
0.0
 11
303.34134632551383
 21
440.38029068596632
 31
0.0
  0
ARC
  5
1E1
  8
DATA
  6
CONTINUOUS
 62
     7
 10
179.14999999999989
 20
410.3802906859662
 30
0.0
 40
30.00000000000011
 50
90.0
 51
180.0
  0
ARC
  5
1E2
  8
DATA
  6
CONTINUOUS
 62
     7
 10
177.64999999999989
 20
411.88029068596632
 30
0.0
 40
30.000000000000099
 50
90.0
 51
180.0
  0
ARC
  5
1E3
  8
DATA
  6
CONTINUOUS
 62
     7
 10
303.34134632551383
 20
410.3802906859662
 30
0.0
 40
30.0
 50
0.0
 51
90.0
  0
ARC
  5
1E4
  8
DATA
  6
CONTINUOUS
 62
     7
 10
305.34134632551388
 20
411.88029068596632
 30
0.0
 40
30.0
 50
0.0
 51
90.0
  0
LINE
  5
1E5
  8
DATA
  6
CONTINUOUS
 62
     7
 10
336.34134632551383
 20
231.18223227127939
 30
0.0
 11
332.34134632551383
 21
231.18223227127939
 31
0.0
  0
LINE
  5
1E6
  8
DATA
  6
CONTINUOUS
 62
     7
 10
339.59129132551368
 20
195.6822322712793
 30
0.0
 11
328.60500688249772
 21
195.6822322712793
 31
0.0
  0
LINE
  5
1E7
  8
DATA
  6
CONTINUOUS
 62
     7
 10
339.27397071892551
 20
207.68223227127939
 30
0.0
 11
328.922327489086
 21
207.68223227127939
 31
0.0
  0
LINE
  5
1E8
  8
DATA
  6
CONTINUOUS
 62
     7
 10
328.922327489086
 20
207.68223227127939
 30
0.0
 11
332.34134632551383
 21
231.18223227127939
 31
0.0
  0
LINE
  5
1E9
  8
DATA
  6
CONTINUOUS
 62
     7
 10
336.34134632551383
 20
231.18223227127939
 30
0.0
 11
339.27397071892551
 21
207.68223227127939
 31
0.0
  0
LINE
  5
1EA
  8
DATA
  6
CONTINUOUS
 62
     7
 10
339.04934416964289
 20
209.4822322712794
 30
0.0
 11
329.18420978294
 21
209.4822322712794
 31
0.0
  0
LINE
  5
1EB
  8
DATA
  6
CONTINUOUS
 62
     7
 10
338.82471762036027
 20
211.28223227127941
 30
0.0
 11
329.446092076794
 21
211.28223227127941
 31
0.0
  0
LINE
  5
1EC
  8
DATA
  6
CONTINUOUS
 62
     7
 10
338.60009107107771
 20
213.08223227127939
 30
0.0
 11
329.70797437064817
 21
213.08223227127939
 31
0.0
  0
LINE
  5
1ED
  8
DATA
  6
CONTINUOUS
 62
     7
 10
338.3754645217951
 20
214.88223227127941
 30
0.0
 11
329.96985666450217
 21
214.88223227127941
 31
0.0
  0
LINE
  5
1EE
  8
DATA
  6
CONTINUOUS
 62
     7
 10
338.15083797251248
 20
216.68223227127939
 30
0.0
 11
330.23173895835617
 21
216.68223227127939
 31
0.0
  0
LINE
  5
1EF
  8
DATA
  6
CONTINUOUS
 62
     7
 10
337.92621142322992
 20
218.4822322712794
 30
0.0
 11
330.49362125221018
 21
218.4822322712794
 31
0.0
  0
LINE
  5
1F0
  8
DATA
  6
CONTINUOUS
 62
     7
 10
337.7015848739473
 20
220.28223227127941
 30
0.0
 11
330.7555035460644
 21
220.28223227127941
 31
0.0
  0
LINE
  5
1F1
  8
DATA
  6
CONTINUOUS
 62
     7
 10
337.47695832466479
 20
222.08223227127939
 30
0.0
 11
331.01738583991829
 21
222.08223227127939
 31
0.0
  0
LINE
  5
1F2
  8
DATA
  6
CONTINUOUS
 62
     7
 10
337.25233177538212
 20
223.88223227127941
 30
0.0
 11
331.2792681337724
 21
223.88223227127941
 31
0.0
  0
LINE
  5
1F3
  8
DATA
  6
CONTINUOUS
 62
     7
 10
337.02770522609961
 20
225.6822322712793
 30
0.0
 11
331.54115042762652
 21
225.6822322712793
 31
0.0
  0
LINE
  5
1F4
  8
DATA
  6
CONTINUOUS
 62
     7
 10
336.80307867681688
 20
227.4822322712794
 30
0.0
 11
331.80303272148052
 21
227.4822322712794
 31
0.0
  0
LINE
  5
1F5
  8
DATA
  6
CONTINUOUS
 62
     7
 10
336.57845212753438
 20
229.28223227127941
 30
0.0
 11
332.06491501533458
 21
229.28223227127941
 31
0.0
  0
LINE
  5
1F6
  8
DATA
  6
STYLE_05
 62
     7
 10
170.12833645209389
 20
222.97900012838929
 30
0.0
 11
167.42892379996769
 21
234.67144090581209
 31
0.0
  0
LINE
  5
1F7
  8
DATA
  6
STYLE_05
 62
     7
 10
178.07368217730971
 20
219.68180718487019
 30
0.0
 11
176.1249420477393
 21
219.23190507618239
 31
0.0
  0
LINE
  5
1F8
  8
DATA
  6
STYLE_05
 62
     7
 10
179.12136457739021
 20
237.3708535579384
 30
0.0
 11
181.82077722951661
 21
225.67841278051571
 31
0.0
  0
LINE
  5
1F9
  8
DATA
  6
STYLE_05
 62
     7
 10
168.92776182085041
 20
237.07008314407031
 30
0.0
 11
176.72272233913199
 21
238.8696915788212
 31
0.0
  0
ARC
  5
1FA
  8
DATA
  6
STYLE_05
 62
     7
 10
169.3776639295381
 20
235.12134301449979
 30
0.0
 40
2.0000000000000231
 50
102.9999999999997
 51
193.0000000000008
  0
ARC
  5
1FB
  8
DATA
  6
STYLE_05
 62
     7
 10
177.17262444781969
 20
236.92095144925071
 30
0.0
 40
1.9999999999999869
 50
13.000000000000719
 51
103.0000000000004
  0
ARC
  5
1FC
  8
DATA
  6
STYLE_05
 62
     7
 10
175.00018677602
 20
224.1037554001085
 30
0.0
 40
4.9999999999998463
 50
193.0
 51
283.0
  0
ARC
  5
1FD
  8
DATA
  6
STYLE_05
 62
     7
 10
176.94892690559041
 20
224.55365750879631
 30
0.0
 40
4.9999999999999627
 50
283.0
 51
13.000000000000281
  0
TEXT
  5
1FE
  8
DATA
 62
     7
 10
206.5806280988684
 20
178.0005756875853
 30
0.0
 40
8.1442057291666661
  1
ウインドスクリーン
 41
0.7
 11
206.5806280988684
 21
186.14478141675201
 31
0.0
 73
     3
  0
LINE
  5
1FF
  8
DATA
  6
CONTINUOUS
 62
     7
 10
176.0199999999999
 20
219.1917081402284
 30
0.0
 11
200.0
 21
175.0
 31
0.0
  0
LINE
  5
200
  8
DATA
  6
CONTINUOUS
 62
     7
 10
176.0199999999999
 20
219.1917081402284
 30
0.0
 11
182.87003009396889
 21
212.09829432754589
 31
0.0
  0
LINE
  5
201
  8
DATA
  6
CONTINUOUS
 62
     7
 10
176.0199999999999
 20
219.1917081402284
 30
0.0
 11
178.40559317172369
 21
209.62361653190541
 31
0.0
  0
LINE
  5
202
  8
DATA
  6
CONTINUOUS
 62
     7
 10
200.0
 20
175.0
 30
0.0
 11
306.25
 21
175.0
 31
0.0
  0
ARC
  5
203
  8
DATA
  6
CONTINUOUS
 62
     7
 10
216.79064800342459
 20
365.55739095342727
 30
0.0
 40
71.852491259506309
 50
86.177061127192104
 51
93.822938872807853
  0
ARC
  5
204
  8
DATA
  6
CONTINUOUS
 62
     7
 10
214.25
 20
-1070.850915812432
 30
0.0
 40
1506.747002021717
 50
89.721217977254184
 51
90.085558857354769
  0
ENDSEC
  0
EOF
